MoneyChords
Resources

Lyrics

Sheet Music

Wikipedia

MoneyChords
Store

O Holy Night

Here are the fingerings that I use to play a chord-melody arrangement of Adolphe Adam, Placide Cappeau (French words), and John S. Dwight's (English words) 1847 Christmas song O Holy Night. I play it in the key of G not the usual key of C. The song is played in a medium 6/8 time.

A

  GM7 F7b5 Em7    Dm7  G7     CM7  C6         G6
E-------------|------------|--0-0----0--|-----3------|
B--0---0---0--|---3----3---|--0----1----|-----5------|
G--4---2---0--|---5----4---|--0----2----|-----4------|
D--4---1---0--|---3----3---|--2----2----|------------|
A----------2--|---5----5---|--3----3----|-----5------|
E--3---1---0--|--------3---|------------|-----3------|
 1.            2.           3.           4.

   GM7  D6/F#     Em7         Am11 D7/F#      G6
E-------------|-------------|------------|-----------|
B--3-3--0-----|------0--1---|---3--1-----|-----------|
G--4----2-2---|---0--0------|---0--2-2---|-----0-----|
D--4----0-----|---0--0------|---2--0-----|-----2-----|
A-------------|---2--2------|---0--------|-----2-----|
E--3----2-----|---0--0------|------2-----|-----3-----|
 5.            6.            7.           8.

     G6     GM7 Bm7 Em7     Dm7   G7      CM7  C6
E---------|-------------|-------------|---0-0----0---|
B---------|--0---0---0--|---3-----3---|---0----1-----|
G---(0)---|--4---2---0--|---5-----4---|---0----2-----|
D---(2)---|--4---0---0--|---3-----3---|---2----2-----|
A---(2)---|------2---2--|---5-----5---|---3----3-----|
E---(3)---|--3-------0--|---------3---|--------------|
 9.        10.           11.           12.

     G6       GM7  G7b5      Bm7       C#m11F#7b9F#7
E----3----|--------------|---2----0---|--2---3---2---|
B----5----|---3-3--2-----|---3--3-----|--2---2---2---|
G----4----|---4----4-4---|---2--2-----|--4---3---3---|
D---------|---4----3-----|---4--0-----|--2---2---2---|
A----5----|--------------|---2--2-----|--4-------4---|
E----3----|---3----3-----|------------|----------2---|
 13.       14.            15.          16.

             Bm7
E--------------------------|------------------------||
B-------------0------------|------------3-----------||
G-------------2------------|------------2-----------||
D-------------0------------|------------0-----------||
A-------------2------------|------------2-----------||
E--------------------------|------------------------||
 17.                        18.

B

   Am11 Am7     D/F#        G6          
E-------0---|-----------|--------3-----|---0---------|
B---3---1---|-------3---|---5-3--5-----|---3--3--3---|
G---0---0---|---2---2---|---4----4-4---|---4--4------|
D---2---2---|---0---0---|--------------|---2--2------|
A---0---0---|-----------|---5----5-----|-------------|
E-----------|---2---2---|---3----3-----|---3--3------|
 19.         20.         21.            22.

   Am11 Am7     D/F#        G6          
E-------0---|-----------|--------3-----|-------------|
B---3---1---|-------3---|---5-3--5-----|------3------|
G---0---0---|---2---2---|---4----4-4---|------4------|
D---2---2---|---0---0---|--------------|------4------|
A---0---0---|-----------|---5----5-----|-------------|
E-----------|---2---2---|---3----3-----|------3------|
 23.         24.         25.            26.

     Em7        Em9            Bm7           Bm11
E-----3-----|----2--0----|------2------|------2------|
B-----3-----|----3-------|------3------|------3------|
G-----0-----|----0-------|------2------|------2------|
D-----0-----|----0-------|------4------|------2------|
A-----2-----|----2-------|------2------|------2------|
E-----0-----|----0-------|-------------|-------------|
 27.         28.          29.           30.

     Am7                         Em7
E-----5-----|---------------|-----3-----|----3--3----|
B-----5-----|----5--5--5----|-----0-----|----0-------|
G-----5-----|----5-----5----|-----0-----|----0-------|
D-----5-----|----5-----5----|-----0-----|----0-------|
A-----------|---------------|-----2-----|----2-------|
E-----5-----|----5-----5----|-----0-----|----0-------|
 31.         32.             33.         34.

     GM7        D11  D7/C       G/B            CM7
E-----7-----|----5---------|-----3-----|----2---0----|
B-----7-----|----5----3----|-----0-----|----0---0----|
G-----4-----|----5----5----|-----0-----|----0---0----|
D-----------|----5----4----|-----0-----|--------2----|
A-----5-----|----5----3----|-----2-----|----3---3----|
E-----3-----|--------------|-----------|-------------|
 35.         36.            37.         38.

     Bm7        Am11 D9/F#        GM7         G6
E-----------|--------0-------|-----------|-----3-----|
B-----3-----|----3---1--3----|-----3-----|-----5-----|
G-----2-----|----0---2-------|-----4-----|-----4-----|
D-----0-----|----2---0-------|-----4-----|-----------|
A-----2-----|----0-----------|-----------|-----5-----|
E-----------|--------2-------|-----3-----|-----3-----|
 39.         40.              41.         42.

     D11         D7/C          Bm7           C6
E-----5-----|------------|------7------|------5------|
B-----5-----|-----3------|------7------|------5------|
G-----5-----|-----5------|------7------|------5------|
D-----5-----|-----4------|------7------|------5------|
A-----5-----|-----3------|-------------|------3------|
E-----------|------------|------7------|-------------|
 43.         44.          45.           46.

     G/D        D7            GaddA                  
E-----3-----|---2--3--5---|-----3-----|-----(3)-----||
B-----3-----|---1--1--3---|-----0-----|-----(0)-----||
G-----4-----|---2--2--5---|-----2-----|-----(2)-----||
D-----5-----|---0--0--4---|-----0-----|-----(0)-----||
A-----5-----|-------------|-----------|-------------||
E-----------|-------------|-----3-----|-----(3)-----||
 47.         48.           49.         50.

Ending

     D11         D7/C          Bm7          C6
E-----5-----|------------|-----10------|----8-7-5----|
B-----5-----|-----3------|------7------|----5--------|
G-----5-----|-----5------|------7------|----5--------|
D-----5-----|-----4------|------7------|----5--------|
A-----5-----|-----3------|-------------|-------------|
E-----------|------------|-------------|-------------|
 43.         44.          45.           46.

     G/D        D7            GaddA                  
E-----3-----|---2--3--5---|-----3-----|-----(3)-----||
B-----3-----|---1--1--3---|-----0-----|-----(0)-----||
G-----4-----|---2--2--5---|-----2-----|-----(2)-----||
D-----5-----|---0--0--4---|-----0-----|-----(0)-----||
A-----5-----|-------------|-----------|-------------||
E-----------|-------------|-----3-----|-----(3)-----||
 47.         48.           49.         50.

About Us | Chord Progressions | F.A.Q. | Freebies | Guitar Chords | Guitar Lessons | Home Page | Links | Music News | Site Search | Songwriting | Standards | Store | Tablature | WebRings Copyright © 2009 MoneyChords.com