MoneyChords
Resources

Lyrics

Wikipedia

MoneyChords
Store

O Come, O Come, Emmanuel

Here are the fingerings that I use to play a chord-melody arrangement of the 13th century plainsong O Come, O Come, Emmanuel. I play it in the key of Am not the usual key of Em. The song is played slowly in 4/4 time.

A

        Am7  A7b9  Dm7 Bm7b5 E7   Am7 G7    CM7  F6
E---||----0--0-0--|-------------|--------|--0--------|
B---||--1----2----|--3-6--5--3--|--1--3--|--0-1----1-|
G-2-||--0----3----|--5----2--1--|--0--4--|--0----2---|
D---||--2----2----|--3----3--0--|--2--3--|--2----0---|
A---||--0----0----|--5----2--2--|--0--5--|--3--------|
E---||------------|----------0--|-----3--|-------1---|
      1.	   2.            3.       4.

   Dm7  E7sus4    Am         Dm7     E7   Am7  D6
E------------|------------|-------------|------------|
B--3-0-------|-------3----|--3-------0--|--1---0-----|
G--5----2-0--|----2-------|--5-2-2---1--|--0---2-2--|
D--3----0----|----2-------|--3-------0--|--2---4-----|
A--5----2----|----0-------|--5-------2--|--0---5-----|
E-------0----|------------|----------0--|------------|
 5.           6.           7.            8.

     G7         CM9  Am7     Dm7   G13      C6
E------------|------------|-------------|-------3---||
B-------1----|--3-5--5-5--|--3-6---5-3--|---1-------||
G----0-------|--4----5----|--5-----4----|---2-------||
D----3-------|--5----5----|--3-----3----|---2-------||
A----2-------|--3---------|--5----------|---3-------||
E----3-------|-------5----|--------3----|-----------||
 9.           10.          11.           12.

B

    Em7         Am7        Dm7 Bm7b5 E7      Am7 G7
E--3--0---|---0---0---|----------------|-----------|
B---0-------|---1-------|---3-6---5--3---|---1---3---|
G---0-------|---0-------|---5-----2--1---|---0---4---|
D---0-------|---2-------|---3-----3--0---|---2---3---|
A---2-------|---0-------|---5-----2--2---|---0---5---|
E---0-------|-----------|------------0---|-------3---|
 13.         14.         15.              16.

   CM7  FM7 C6/E   Dm7  E7sus4    Am     (Bm7b5 E7)
E--0------------|------------|---------|------------||
B--0-1-------1--|--3-0-------|---------|------------||
G--0-----2---2--|--5----2-0--|----2----|------------||
D--2-----2---2--|--3----0----|----2----|------------||
A--3---------3--|--5----2----|----0----|------------||
E--------1---0--|-------0----|---------|------------||
 17.             18.          19.       20.

About Us | Chord Progressions | F.A.Q. | Freebies | Guitar Chords | Guitar Lessons | Home Page | Links | Music News | Site Search | Songwriting | Standards | Store | Tablature | WebRings Copyright © 2008 MoneyChords.com