O Christmas Tree<br>(O Tannenbaum)

MoneyChords
Resources

Lead Sheet

Lesson (Guitar Noise)

Sheet Music (pdf)

Wikipedia

MoneyChords
Store

O Christmas Tree
(O Tannenbaum)

Here are the fingerings that I use to play a chord-melody arrangement of the traditional German Christmas carol O Christmas Tree (O Tannenbaum). I play it in the key of C not the usual key of G. The song is played moderately in 3/4 waltz time.

  G7    C6  Dm7     Em7 A7b9    Dm  Bm7b5 F#o7 C6 G7
E---||-----------|--0-0-0-0--|----0-1----|-----------|
B---||--1-1-1-3--|--0---2----|--3---3-0--|--3--1-----|
G-0-||--2---2----|--0---3----|--2---2----|--2--2--0--|
D-3-||--2---0----|--0---2----|--3--------|--1--2--3--|
A-2-||--3--------|--2---0----|------2----|-----3--2--|
E-3-||-----------|--0--------|-----------|--2-----3--|
      1.          2.          3.          4.

  C6    Dm7 G7 Em7Bb9#11A7b9 Dm Em7F6 G9  F13 C6 CM7/G
E-------------|--0-0-0--0--|-----0--1----|--------3--|
B--1--1--1--3-|--0---1--2--|--3--0--3--0-|--3--1--0--|
G--2-----2--4-|--0---1--3--|--2--0--2--2-|--2--2--0--|
D--2-----0--3-|--0---0--2--|--3--0-----3-|--1--2--2--|
A--3--------5-|--2---1--0--|-----2--3----|-----3-----|
E-----------3-|--0---------|-----0--1--3-|--1-----3--|
 5.            6.           7.            8.  

   Em7  A7b9    Dm11 Dm7    Dm7 Dm11 G7   Do   CM7 G7
E--3-0--5-3--|--3-1--1-1--|--1----3--1--|--1-0--0----|
B--0----2-2--|--1----1----|--1-3--1--0--|--0----0----|
G--0----3-3--|--2----2----|--2----2--0--|--1----0--0-|
D--0----2-2--|--0----0----|--0----0--0--|--0----2--3-|
A--2----0-0--|------------|-------------|-------3--2-|
E--0---------|------------|----------3--|----------3-|
 9.           10.          11.           12.

   C6     F13 Em7 Bb9#11A7b9    Dm  Ab13G7   C69 C6 
E------------|--0---0---0-0--|----0--------|--------||
B--1-1-1--3--|--0---1---2----|--3----6-----|--3--1--||
G--2---2--2--|--0---1---3----|--2----5--4--|--2--2--||
D--2---2--1--|--0---0---2----|--3----4--3--|--2--2--||
A--3---3-----|--2---1---0----|----------5--|--3--3--||
E---------1--|--0------------|-------4--3--|--------||
 13.          14.             15.           16.

About Us | Chord Progressions | F.A.Q. | Freebies | Guitar Chords | Guitar Lessons | Home Page | Links | Music News | Site Search | Songwriting | Standards | Store | Tablature | WebRings Copyright © 2009 MoneyChords.com