MoneyChords
Resources

Chords & Lyrics

Notes on Series

Song Lesson (GuitarAlliance)

MoneyChords
Store

In My Life

Here are the fingerings that I use to play a chord-melody arrangement of The Beatles' 1965 In My Life from their "Rubber Soul" album. I play it in the key of C not the original key of A. The song is played in a moderate 4/4 tempo.

Intro:

   C                  G      C                  G
E-----------------|-------|-----------------|-------|
B-----1-----------|---0---|-----1-----------|---0---| 
G--------------0--|---0---|--------------0--|---0---| 
D--2-----2--3-----|---0---|--2-----2--3-----|---0---| 
A--3-----3--------|---2---|--3-----3--------|---2---| 
E-----------------|---3---|-----------------|---3---| 

Verse:
            C    G       Am   C7/Bb    F      Fm
E-------||---------0--|--3-0-----0--|----0----------| 
B-------||--3-1--3----|--1----3-----|--3---3--1-----| 
G--0-2--||--0----0----|--2----0-----|--2------1--1--| 
D-------||--2----0----|--2----2-----|---------3-----| 
A-------||--3----2----|--0----1-----|--3------3-----| 
E-------||-------3----|-------------|--1------1-----| 
          1.           2.            3.

                                 Bridge:
 ______________  ______________
|1.            ||2.            |
   C               C               Am
E----0--0------||----0--0------||--0----------------| 
B-------1------||-------1-1-3--||--1-3-3-1--1---1---| 
G--0----0-0-2--||--0----0------||--2--------2-2-----| 
D--2----2------||--2----2------||--2--------2-------| 
A--3----3------||--3----3------||--0--------0-------| 
E--------------||--------------||-------------------| 
 4.              8.              9.
 
   F           Bb                C
E--0-----0--|--1--0-----------|-----0--0--0---------| 
B--1--3--1--|--3-----3--1-----|-----------1--1--3---| 
G--2-----2--|--3--------3--1--|--0--------0---------| 
D--3-----3--|--0--------0-----|--2--------2---------| 
A-----------|-----------------|--3--------3---------| 
E-----------|-----------------|---------------------| 
 10.         11.               12.
 
   Am                     D7          Fm
E--0-------------------|--0--------|----------------| 
B--1--3--3--1--1----1--|--1--3-----|--4-3-1-3-1-----| 
G--2-----------2--2----|--2-----2--|--1---------1---| 
D--2-----------2-------|--0-----0--|--1-------------| 
A--0-----------0-------|-----------|--3-------------| 
E----------------------|--2-----2--|--1-------------| 
 13.                    14.         15. 

             Ending:
   C           C                G      C  
E----0--0--||---------------|-------|---------------| 
B-------1--||----1----------|---0---|----1----------| 
G--0----0--||------------0--|---0---|-----------0---| 
D--2----2--||--2----2--3----|---0---|--2---2--3-----| 
A--3----3--||--3----3-------|---2---|--3---3--------| 
E----------||---------------|---3---|---------------| 
 16.  

       G                                   C
E----------------------------------|---------------|| 
B------0---0---0-----------0-------|-------1-------|| 
G------0-------0-------2-----------|-------0-------|| 
D------0-------0-------------------|-------2-------|| 
A------2-------2-------------------|-------3-------|| 
E------3-------3-------------------|---------------||   

About Us | Chord Progressions | F.A.Q. | Freebies | Guitar Chords | Guitar Lessons | Home Page | Links | Music News | Site Search | Songwriting | Standards | Store | Tablature | WebRings Copyright © 2004 MoneyChords.com