MoneyChords
Resources

Lead Sheet

The Michelle Chord (MoneyChords

Notes on Series

MoneyChords
Store

Michelle

Here are the fingerings that I use to play a chord-melody arrangement of The Beatles 1965 Michelle. I play it in the key of Am not the original key of Fm. The song is played in a moderate 4/4 tempo.

Intro:

   Am   E+      Am7  Am6     FM7         E 
E----0----0--|----0----0--|----0-------|----0--0-0--||
B----1----1--|----1----1--|----1--3-1--|----0--0-0--||
G--2-2--1-1--|--0-0----2--|----2--2-2--|----1--1-1--||
D------------|-------4-4--|--3-3--3-3--|--2-2--2-2--||
A------------|------------|------------|------------||
E------------|------------|------------|------------||

Verse:

    A          Dm7        G6            F#o7
E---0--0---|---1------|-----0-------|----------------|
B---2--2---|---1--1---|---0----0-0--|------1--4------|
G---2--2---|---2------|---0----0----|---2-----5--5---|
D---2--2---|---0------|---0----0----|---1-----4------|
A---0------|----------|-------------|----------------|
E----------|----------|---3----3----|---2-----5------|
 1.         2.         3.            4.

                                   Bridge:
                _______  _________
               |1.     ||2.      
   E  Ebo7         E        E        Am      Am(M7)
E--------------|-------||------0--|--5-------5-------|
B--0-----0--1--|---0---||---0--0--|--5--8-5--5--8-5--|
G--1--2-----2--|---1---||---1--1--|--5-------5-------|
D--2--1-----1--|---2---||---2--2--|--7-------6-------|
A--2-----------|---2---||---2--2--|------------------|
E--0--2-----2--|---0---||---0-----|------------------|
 5.             6.       12.       13.

   Am9 Am6    C7sus           FM7 F6     E7sus
E---7---5--|--------------|-----------|--0-0-0--5-0--|
B---5---5--|--5-6-5--6----|---1---1---|--0------3----|
G---5---5--|--3------3-5--|---2---2---|--2------4----|
D---5---4--|--5------5----|---2---0---|--0------2----|
A----------|--3------3----|-----------|--2-----------|
E----------|--------------|---1---1---|--0-----------|
 14.        15.            16.         17.

   Am               Am(M7)  Am7  Am6     FM7      E
E------------|--0-0-0-0--|--0-0--0-0--|--0------|---||
B--3-1--1-3--|--1---1----|--1----1----|--1-3-1--|-0-||
G--2----2----|--2---1----|--0----2----|--2-2----|-1-||
D--2----2----|--2---2----|--2----4----|--3-3----|-2-||
A--0----0----|--0---0----|--0----0----|--0-0----|-2-||
E------------|-----------|------------|---------|-0-||
 18.          19.         20.          21.       22.

Guitar Solo:

   A                Dm7     G             F#o7
E-------------0--|--1----|-------------|-------------|
B---------2-3----|--1-1--|--0-0-1-3----|------0-1----|
G--2-2-4--2------|--2----|--0-----0-0--|--2-2---2----|
D--2------2------|--0----|--0-----0----|--1-----1-4--|
A--0------0------|-------|--------2----|-------------|
E----------------|-------|--3-----3----|--2-----2----|

   E  Ebo7      E
E------------|---------------||
B-------1----|------------0--||
G--1----2-2--|--1-----1-2----||
D--2--4------|--2-2-4--------||
A--2--0------|--2------------||
E--0---------|--0------------||

About Us | Chord Progressions | F.A.Q. | Freebies | Guitar Chords | Guitar Lessons | Home Page | Links | Music News | Site Search | Songwriting | Standards | Store | Tablature | WebRings Copyright © 2005 MoneyChords.com