MoneyChords
Resources

Chords & Lyrics

Lead Sheet

Vanilla Book

MoneyChords
Store

Makin' Whoopee

Here are the fingerings that I use to play a chord-melody arrangement of Walter Donaldson's 1928 standard Makin' Whoopee. I play it in the key of C not the original key of G. The song is played in a moderate 4/4 swing tempo.

             CM7 C#o7      Dm7 G7        CM7 C7
E---------||--0----------|--1----------|--3----------|
B---------||--0----------|--1----------|--0---1-3-1--|
G--0-2-0--||--0---0-2-0--|--2---0-2-0--|--0---3------|
D---------||--2---2------|--0---3------|--2---2------|
A---------||--3---4------|------2------|--3---3------|
E---------||-------------|------3------|-------------|
            1.            2.            3.
                                            _________
   FM7 Bb7      C/G Am7       Ab7   G7     |1.CM7 Am7
E--3--1-3-1--|--0-0--------|---------------|--0------|
B--1--3------|--1----------|--4-4-----3-4--|--0---1--|
G--2--1------|--0---0-2-0--|--5-----5------|--0---0--|
D--2--3------|--2---2------|--------3------|--2---2--|
A--0--1------|------0------|--6-----5------|--3---0--|
E------------|--3----------|--4-----3------|---------|
 4.           5.            6.              7.
 _______________  __________________
    Dm7 G7      ||2.CM7     Dm7 Ebo7    Em7b5   A7b9
E---------------||--0-----|---------||----6-----6----|
B---1-----------||--0--1--|--1---1--||--8---8---5-8--|
G---2---0-2-0---||--0-----|--2---2--||--7-------6----|
D---0---3-------||--2-----|--0---1--||--8-------5----|
A-------2-------||--3-----|---------||--7-------0----|
E-------3-------||--------|---------||---------------|
 8.               15.      16.        17.

   Dm7b5          G7b9   CM7    Em7b5  A7b9    Dm7b5
E-------|----4----4----|--0--|----6----6----|--------|
B--6-6--|--6---6--3-6--|--0--|--8---8--5-8--|--6--6--|
G--5----|--5------4----|--0--|--7------6----|--5-----|
D--6----|--6------3----|--2--|--8------5----|--6-----|
A--5----|--5-----------|--3--|--7------0----|--5-----|
E-------|--------------|-----|--------------|--------|
 18.     19.            20.   21.            22.

     Dm7b5    G7b9         Em7  Am7  Dm7  G7  
E------4------4-------|----0----0----0--------------||
B----6---6----3--6----|----3----2----1--------------||
G----7--------4-------|----4----3----2----0--2-0----||
D----6--------3-------|----5----2----0----3---------||
A----7----------------|---------0---------2---------||
E---------------------|----0--------------3---------||
 23.                   24. 

   CM7 C#o7     Dm7 G7       CM7 C7        FM7 Bb7
E--0---------|--1---------|--3----------|--3--1-3-1--|
B--0---------|--1---------|--0---1-3-1--|--1--3------|
G--0--0-2-0--|--2--0-2-0--|--0---3------|--2--1------|
D--2--2------|--0--3------|--2---2------|--2--3------|
A--3--4------|-----2------|--3---3------|--0--1------|
E------------|-----3------|-------------|------------|
 25.          26.          27.           28.
                                  
   C/G   Am7        Ab7   G7        CM7 
E--0--0----------|---------------|--0-----|---------||
B--1-------------|--4-4-----3-4--|--0--1--|---(1)---||
G--0------0-2-0--|--5-----5------|--0-----|---(0)---||
D--2------2------|--------3------|--2-----|---(2)---||
A---------0------|--6-----5------|--3-----|---(3)---||
E--3-------------|--4-----3------|--------|---------||
 29.              30.             31.      32.

About Us | Chord Progressions | F.A.Q. | Freebies | Guitar Chords | Guitar Lessons | Home Page | Links | Music News | Site Search | Songwriting | Standards | Store | Tablature | WebRings Copyright © 2006 MoneyChords.com