MoneyChords
Resources

Chords & Lyrics

MoneyChords
Store

Let It Snow! Let It Snow! Let It Snow!

Here are the fingerings that I use to play a chord-melody arrangement of Sammy Cahn and Julie Styne's 1945 Christmas standard Let It Snow! Let It Snow! Let It Snow! I play it in the key of C not the original key of F. The song is played in a medium 4/4 time. I used the chord progression from "The Real Christmas Book."

A

         Dm7    G7     C6   F9    C/E  Ebo  G7/D G7     
E-----||-3-3-1-------|----------|----------|---------|
B-----||-1------5--3-|-1--------|-3-1--3-1-|-0-------|
G-0-0-||-2------4----|-2-0--0-0-|-0----2---|-0--0--2-|
D-----||-0------3----|-2----1---|-2----1---|-3--3----|
A-----||-------------|-3----0---|-3--------|-5--2----|
E-----||--------3----|------1---|-0----2---|----3----|
        1.            2.         3.         4.

   Em7   A7      D7 Ebo     Dm7   G7        C6 C#o7
E--5-5-3-1-0--|-----7-5--|--3-3-1--------|----------||
B--3-----2----|--3--4----|--1-----5-5-3--|--1-------||
G--4-----0----|--5--5----|--2-----4------|--2----0--||
D--2-----2----|--4--4----|--0-----3------|--2----2--||
A--------0----|--5-------|---------------|--3----4--||
E-------------|----------|--------3------|----------||
 5.            6.         7.              8.

A

   Dm7    G7       C6   F9      C/E  Ebo   G7/D G7     
E--3-3-1--------|------------|------------|----------|
B--1------5--3--|--1---------|--3-1--3-1--|--0-------|
G--2------4-----|--2-0--0-0--|--0----2----|--0--0--2-|
D--0------3-----|--2----1----|--2----1----|--3--3----|
A---------------|--3----0----|--3---------|--5--2----|
E---------3-----|-------1----|--0----2----|-----3----|
 9.              10.          11.          12.

   Em7   A7      D7 Ebo     Dm7   G7       C6
E--5-5-3-1-0--|-----7-5--|--3-3-1-------|-----------||
B--3-----2----|--3--4----|--1-----5-5-3-|--1--0--1--||
G--4-----0----|--5--5----|--2-----4-----|--2--2-----||
D--2-----2----|--4--4----|--0-----3-----|--2--2-----||
A--------0----|--5-------|--------------|--3--3-----||
E-------------|----------|--------3-----|-----------||
 13.           14.        15.            16.

B

   GM7    Am7     Bm7 E7b9   Am7   D7       GM7 D7sus4
E----0------3--|----------|---------------|----------|
B--3---3--0----|--3--0-3--|--1-1-0--------|-----0-1--|
G--4------5----|--2--1----|--0-----2-0-2--|--4--0----|
D--4------5----|--4--3----|--2-----0------|--4--0----|
A---------0----|--2--2----|--0------------|-----0----|
E--3-----------|-----0----|--------2------|--3-------|
 17.            18.        19.             20.
 
   GM7         G9Gb9F9E9   A7    D7     G7sus4 G7 C#o7
E----0-----3--|---------|--3-2-0-2-0-2--|--3--3-----||
B--3---3------|-3-2-1-3-|--2-----1------|--3--3-----||
G--4-----4----|-4-3-2-1-|--0-----2------|--5--4--0--||
D--4-----4----|-3-2-1-0-|--2-----0------|--3--3--2--||
A-------------|-5-4-3-2-|--0------------|--5--5--4--||
E--3-----3----|-3-2-1-0-|---------------|--3--3-----||
 21.            22.      23.             24.

A

   Dm7    G7       C6   F9      C/E  Ebo   G7/D G7     
E--3-3-1--------|------------|------------|----------|
B--1------5--3--|--1---------|--3-1--3-1--|--0-------|
G--2------4-----|--2-0--0-0--|--0----2----|--0--0--2-|
D--0------3-----|--2----1----|--2----1----|--3--3----|
A---------------|--3----0----|--3---------|--5--2----|
E---------3-----|-------1----|--0----2----|-----3----|
 25.             26.          27.          28.

   Em7   A7      D7 Ebo     Dm7   G7       C6 (Dm7 G7)
E--5-5-3-1-0--|-----7-5--|--3-3-1-------|-----------||
B--3-----2----|--3--4----|--1-----5-5-3-|--1--------||
G--4-----0----|--5--5----|--2-----4-----|--2--------||
D--2-----2----|--4--4----|--0-----3-----|--2--------||
A--------0----|--5-------|--------------|--3--------||
E-------------|----------|--------3-----|-----------||
 29.           30.        31.            32.
Alternate Fingerings

(1) Bars 1 through 4: 

         C      Dm7    C/E  FM7   Em7  Eb7  G7/D A7    
E-----||-3-3-1--0----|----------|----------|---------|
B-----||-0------1--3-|-1--------|-3-1--3-1-|-0-------|
G-0-0-||-0------2----|-0-0--0-0-|-0----3---|-0--0--2-|
D-----||-2------0----|-2----2---|-0----1---|-3-----2-|
A-----||-3-----------|-3----0---|-2--------|-5-----0-|
E-----||-------------|-0----1---|-0--------|---------|
        1.            2.         3.         4.

(2) Bars 1 through 4: 

        C    G13 G7b9 C          C/E Ebo  G7/D G7 A7    
E-----||-3-3-1-------|----------|----------|---------|
B-----||-0------5--3-|-1--------|-3-1--3-1-|-0-------|
G-0-0-||-0------4--1-|-0-0--0-0-|-0----2---|-0--0--2-|
D-----||-2------3--3-|-2----2---|-2----1---|-3--3--2-|
A-----||-3---------2-|-3----3---|-3--------|-5--2--0-|
E-----||--------3----|----------|-0----2---|----3----|
        1.            2.         3.         4.

(3) Bars 5 through 8: 

  Dm7 Em7F6F#m7b5 G9 Ebo    Em7 A7  D13 G13   C  A7 
E--5-5--3-1-0--|-----7-5--|--3--3-1-0-0----|--------||
B--6----0-3-1--|--3--4----|--0--2---1---3--|--1-----||
G--5----0-2-2--|--2--5----|--0--0---2---2--|--0--0--||
D--7----0---2--|--3--4----|--0--2---0---3--|--2--2--||
A--5----2-3----|-----0----|--2--0----------|--3--0--||
E-------0-1-2--|--3-------|--0----------3--|--------||
 5.             6.         7.               8.

(4) Bars 17 through 20:

   GM7    Am7    Bm7 E7b9    Am7   Cm/Eb     G/D D13
E----0------3--|----------|---------------|----------|
B--3---3--0----|--3--0-3--|--1-1-0--------|-------1--|
G--4------5----|--2--1----|--0-----2-0-2--|--4--4-2--|
D--4------5----|--0--3----|--2-----1------|--4--4-0--|
A---------0----|--2--2----|--0-----3------|--5--5----|
E--3-----------|-----0----|---------------|----------|
 17.            18.        19.             20.

(5) Bars 21 through 24:

   G             Bm F6 E7   A7    D7        G  C  G7
E---0-----3-|------------|--3-2-0-2-0-2--|--3--3----||
B-3---3-----|-3--3--3--3-|--2-----1------|--0--1----||
G-4-----4---|-4--4--2--1-|--0-----2------|--0--0--0-||
D-4-----4---|-5--4-----0-|--2-----0------|--0--2--3-||
A-----------|-5--2--3--2-|--0------------|--2--3--2-||
E-3-----3---|-3--2--1--0-|---------------|--3-----3-||
 21.         22.          23.             24.

(6) Bars 21 through 24:

   G           Bm7b5 E7    A9    D9     G9sus G13 G7
E----0------3--|--------|--3-2-0-2-0-2--|--3--3-----||
B--3---3--0----|--3--3--|--0-----1------|--3--5-----||
G--4------5----|--2--1--|--0-----2------|--5--4--0--||
D--4------5----|--3--0--|--2-----0------|--3-----3--||
A---------0----|--2--2--|--0------------|--5--5--2--||
E--3-----------|-----0--|---------------|--3--3--3--||
 21.            22.      23.             24.

About Us | Chord Progressions | F.A.Q. | Freebies | Guitar Chords | Guitar Lessons | Home Page | Links | Music News | Site Search | Songwriting | Standards | Store | Tablature | WebRings Copyright © 2008 MoneyChords.com