MoneyChords
Resources

Chord-Melody (Guitar Noise)

Lyrics

Song Analysis

Vanilla Book

MoneyChords
Store

It's Only A Paper Moon

Here are the fingerings that I use to play a chord-melody arrangement of Harold Arlen's 1933 standard It's Only A Paper Moon. I play it in the original key of C. The song is played in a moderate 4/4 tempo. I used the chord progression from "The Real Book - Volume II."

   C6   C#o       Dm7  G7    Dm7  G7        C6 
E-------3-3-3--|--1-0-----|-------1-1-1--|--0--------|
B-------2------|--1----3--|-------0------|--1-3-1----|
G--0-0--3------|--2----0--|--0-0--0------|--2---2----|
D--2----2------|--0----3--|--3----0------|--2---2----|
A--3-----------|-------2--|--5-----------|--3---3----|
E--------------|-------3--|-------3------|-----------|
 1.             2.         3.             4.
                                          ___________
   C7             F6   F#o     G7        |1. C6 G7   |
E-------3-3-4--|--5-1-------|----5--3----|----------||
B-------1------|--3----3-1--|--0----0-0--|---1------||
G--0-0--3------|--5----2----|--0----0----|---2--0---||
D--2----2------|--3----1----|--3----3----|---2--3---||
A--3-----------|------------|--2----2----|---3--2---||
E--------------|-------2----|--3----3----|------3---||
 5.             6.           7.           8.
 ________
|2. C6      F  F#o   C/G        Dm7  G7       C6
E--------|--------|--0--1-5--|--3-3--0-0--|----------|
B--1--1--|--3--4--|--1-------|--1----0----|---1--1---|
G--2--2--|--2--2--|--0-------|--2----0----|---2--2---|
D--2--2--|-----1--|--2-------|--0----3----|---2--2---|
A--3--3--|--3-----|----------|-------2----|---3--3---|
E--------|--1--2--|--3-------|-------3----|----------|
 16.      17.      18.        19.          20.

    F  F#o   C/G A7      Dm7              G7
E----------|--0----0--|--3-3-3--3---0--|--5-5-5--5--||
B---3--4---|--1--4----|--1------1-4----|--5------5--||
G---2--2---|--0--0----|--2------2------|--4------4--||
D------1---|--2--2----|--0------0------|--3------3--||
A---3------|-----0----|----------------|------------||
E---1--2---|--3-------|----------------|--3------3--||
 21.        22.        23.              24. 

   C6   C#o       Dm7  G7    Dm7  G7        C6 
E-------3-3-3--|--1-0-----|-------3-3-3--|--0--------|
B-------2------|--1----3--|-------0------|--1-3-1----|
G--0-0--3------|--2----0--|--0-0--0------|--2---2----|
D--2----2------|--0----3--|--3----3------|--2---2----|
A--3-----------|-------2--|--5----2------|--3---3----|
E--------------|-------3--|-------3------|-----------|
 25.            26.        27.            28.
                                         
   C7             F6   F#o     G7            C6 (G7) 
E-------3-3-4--|--5-1-------|----5--3----|----------||
B-------1------|--3----3-1--|--0----0-0--|---1------||
G--0-0--3------|--5----2----|--0----0----|---2------||
D--2----2------|--3----1----|--3----3----|---2------||
A--3-----------|------------|--2----2----|---3------||
E--------------|-------2----|--3----3----|----------||
 29.            30.          31.          32.

About Us | Chord Progressions | F.A.Q. | Freebies | Guitar Chords | Guitar Lessons | Home Page | Links | Music News | Site Search | Songwriting | Standards | Store | Tablature | WebRings Copyright © 2005 MoneyChords.com