MoneyChords
Resources

Lyrics

Vanilla Book

MoneyChords
Store

Isn't It Romantic?

Here are the fingerings that I use to play a chord-melody arrangement of Richard Rodgers and Lorenz Hart's 1932 standard Isn't It Romantic? from the Paramount Picture "Love Me Tonight." I play it in the key of C not the original key of Eb. The song is played moderately in 4/4 time. I used the chord progression from the "[Old] Real Book Vol. 1."

A

  (G7)      C6 Am7 Dm7     G7    CM7 C#o7 CM7 G7
E---------||-----|-------------|-0-0-3-3-|-0---------|
B-0-1---0-||-1-1-|-0-1---0-1-3-|-0---2---|-0-0-1---0-|
G-----2---||-2-0-|-2---2---2---|-0---3---|-0-2---2---|
D---------||-2-2-|-0-------3---|-2---2---|-2-3-------|
A---------||-3-0-|-------------|-3-------|-3---------|
E---------||-----|---------3---|---------|---3-------|
            1.    2.            3.        4. 

   C6/E Am7    Dm7        G7   CM7          Gm7  C7
E-----------|----------------|--0-0--3-3--|--6---6--||
B---1---1---|--0-1---0-1--3--|--0----0----|--6---5--||
G---2---0---|--2---2------4--|--0----0----|--7---5--||
D---2---2---|--0----------3--|--2----2----|--5---5--||
A---3---0---|-------------5--|--3----3----|---------||
E-----------|-------------3--|------------|---------||
 5.          6.               7.           8.

B

    FM7      G7       E7      Am   E7/G#    Gm7 C7
E----5----|--7-5------0----|-------0-0--|------------|
B----5----|--6---8-6--0-3--|--1-1--3----|---1---1----|
G----5----|--7--------1----|--0----4----|---3---3----|
D----3----|--5--------0----|--2----0----|---3---2----|
A---------|-----------2----|--0---------|-------3----|
E---------|-----------0----|-------4----|---3--------|
 9.        10.              11.          12.

  FM7 A7/E Dm7    Bm7b5 E7  Am  D9   G7Alt G7
E--5--5--|-7-5------------|-----5-5--|--------------||
B--5--5--|-6---8-6--5--3--|-1-1-5----|-----0-1---0--||
G--5--6--|----------2--1--|-2---5----|--3--2---2----||
D--3--5--|-7--------3--0--|-2---4----|--3--3--------||
A-----7--|-5--------2--2--|-0---5----|--5-----------||
E--------|-------------0--|----------|--3--3--------||
 13.      14.              15.        16.

A

    C6 Am7     Dm7     G7      CM7 C#o7  CM7 G7
E-----------|---------------|--0-0-3-3--|-0----------|
B---1---1---|--0-1---0-1-3--|--0---2----|-0--0-1---0-|
G---2---0---|--2---2---2----|--0---3----|-0--2---2---|
D---2---2---|--0-------3----|--2---2----|-2--3-------|
A---3---0---|---------------|--3--------|-3----------|
E-----------|----------3----|-----------|----3-------|
 17.         18.             19.         20. 

   C6/E Am7    Dm7        G7   CM7          Gm7  C7
E-----------|----------------|--0-0--3-3--|--6---6--||
B---1---1---|--0-1---0-1--3--|--0----0----|--6---5--||
G---2---0---|--2---2------4--|--0----0----|--7---5--||
D---2---2---|--0----------3--|--2----2----|--5---5--||
A---3---0---|-------------5--|--3----3----|---------||
E-----------|-------------3--|------------|---------||
 21.         22.              23.          24.

C

   Dm Dm/C   Bm7b5    E7      Am   Am/G   Am/F# Fm6 
E--5---5--|--7-5-3-1--0----|-------0-0--|--5-5--8-8--|
B--6---3--|--6--------0-3--|--1-1--1----|--5----6----|
G--7---5--|--7--------1----|--2----0----|--5----7----|
D--7---3--|--7--------0----|--2----2----|--4----6----|
A--5---3--|-----------2----|--0---------|------------|
E---------|-----------0----|-------3----|------------|
 25.       26.              27.          28.
 
   Em7   Eb7  Dm7 G7           C   Fm6     C  (G7)
E--10-8-----|-----7-8-5-7--|----8---8---|---8-------||
B---8----8--|--8--6--------|----8---6---|---8-------||
G--------6--|--5--7--------|----9---7---|---9-------||
D---9----8--|--7--5--------|---10---6---|--10-------||
A---7----6--|--5-----------|------------|-----------||
E-----------|--------------|------------|-----------||
 29.         30.            31.          32. 
Alternate Fingerings

(1) Bars 1 through 4: (Dm9 for CM7)

 (G7)      C6 Am7 Dm7     G7    CM7 C#o7 Dm9 G7
E---------||-----|-------------|-0-0-3-3-|-----------|
B-0-1---0-||-1-1-|-0-1---0-1-3-|-0---2---|-5-0-1---0-|
G-2---2---||-2-0-|-2---2---2---|-0---3---|-5-2---2---|
D-3-------||-2-2-|-0-------3---|-2---2---|-3-3-------|
A---------||-3-0-|-------------|-3-------|-5---------|
E-3-------||-----|---------3---|---------|---3-------|
            1.    2.            3.        4. 

(2) Bars 5 through 8: (G7sus4-G7b9 for G7)  

   C6/E Am7    Dm7   G7sus G7b9 CM7  Am7    Gm7  F#7
E-----------|----------------|--0-0--3-3--|--6---6--||
B---1---1---|--0-1---0-1--3--|--0----1----|--6---5--||
G---2---0---|--2---2---2--1--|--0----0----|--7---6--||
D---2---2---|--0-------3--3--|--2----2----|--5---4--||
A---3---0---|-------------2--|--3----0----|---------||
E-----------|----------3-----|------------|---------||
 5.          6.               7.           8.

(3) Bars 9 through 12:(G#7#5 for E7/G# & F#7b5 for C7)

    FM7      G7       E7#5    Am7  G#7#5   Gm7 F#7b5
E----5----|--7-5------0----|------------|------------|
B----5----|--6---8-6--1-3--|--1-1--5-5--|---1---1----|
G----5----|--7--------1----|--0----5----|---3---3----|
D----3----|--5--------0----|--2----4----|---3---2----|
A---------|-----------2----|--0---------|------------|
E---------|-----------0----|-------4----|---3---2----|
 9.        10.              11.          12.

(4) Bars 9 through 12: (E+7 for E7; E7b9/G# for E7)   

    Dm7      G7       E+7     Am  E7b9/G#  Gm7 F#7b5
E----5----|--7-5-----------|------------|------------|
B----6----|--6---8-6--5----|--1-1--5-5--|---1---1----|
G----5----|--7--------5-7--|--2----4----|---3---3----|
D----0----|--5--------6----|--2----3----|---3---2----|
A---------|-----------7----|--0---------|------------|
E---------|----------------|-------4----|---3---2----|
 9.        10.              11.          12.

(5) Bars 13 through 16: (G13-G#o7 for Bm7b5-E7) 

 FM7 A7/E  Dm7    G13 G#o7  Am  D9     Go7 G7
E--5--5--|-7-5------------|-----5-5--|--------------||
B--5--5--|-6---8-6--5--3--|-1-1-5----|-----0-1---0--||
G--2--6--|----------4--4--|-2---5----|--3--2---2----||
D-----5--|-7--------3--3--|-2---4----|--2--3--------||
A--3--7--|-5--------------|-0---5----|--------------||
E--1-----|----------3--4--|----------|--3--3--------||
 13.      14.              15.        16.

(6) Bars 13 through 16: (Bm11 for C#m7b5) 

 FM7 A7/E  Dm7    Bm11 E7  Am7  D9     Go7 G7
E--5--5--|-7-5------0-----|-----5-5--|--------------||
B--5--5--|-6---8-6--3--3--|-1-1-5----|-----0-1---0--||
G--2--6--|----------2--1--|-0---5----|--3--2---2----||
D-----5--|-7--------0--0--|-2---4----|--2--3--------||
A--3--7--|-5--------2--2--|-0---5----|--------------||
E--1-----|-------------0--|----------|--3--3--------||
 13.      14.              15.        16.

(7) Bars 21 through 24: (A7b9 for C7)

  C6/E Am7    Dm7        G7   CM7          Gm7  A7b9
E-----------|----------------|--0-0--3-3--|--6---6--||
B---1---1---|--0-1---0-1--3--|--0----0----|--6---5--||
G---2---0---|--2---2------4--|--0----0----|--7---6--||
D---2---2---|--0----------3--|--2----2----|--5---5--||
A---3---0---|-------------5--|--3----3----|------0--||
E-----------|-------------3--|------------|---------||
 21.         22.              23.          24.

(8) Bars 25 through 28: (Bo-E7#5 for Bm7-E7) 

  Dm Dm/C    Bo       E7#5    Am   Am/G   Am/F# Fm6 
E--5---5--|--7-5-----------|-------0-0--|--5-5--8-8--|
B--6---3--|--6---8-6--5----|--1-1--1----|--5----6----|
G--7---5--|--7--------5-7--|--2----0----|--5----7----|
D--7---3--|--6--------6----|--2----2----|--4----6----|
A--5---3--|-----------5----|--0---------|------------|
E---------|----------------|-------3----|------------|
 25.       26.              27.          28.

(9) Bars 29 through 32:

  Em7 Am7 Eb7 Dm7 G7           C69  F9     C69 
E--10-8-----|-----7-8-5-7--|----8---8---|---8-------||
B---8-8--8--|--8--6--------|----8---8---|---8-------||
G-----9--6--|--5--7--------|----7---8---|---7-------||
D---9-7--8--|--7--5--------|----7---7---|---7-------||
A---7----6--|--5-----------|--------8---|---7-------||
E-----------|--------------|------------|-----------||
 29.         30.            31.          32. 


About Us | Chord Progressions | F.A.Q. | Freebies | Guitar Chords | Guitar Lessons | Home Page | Links | Music News | Site Search | Songwriting | Standards | Store | Tablature | WebRings Copyright © 2008 MoneyChords.com