MoneyChords
Resources

Chord Progression (MoneyChords)

Harmonic Analysis

Lyrics

MoneyChords
Store

The Girl From Ipanema

Here are the fingerings that I use to play a chord-melody arrangement of Antonio Carlos Jobim's 1963 standard The Girl From Ipanema. I play it in the key of C not the usual sheet music key of F. The song is played in a moderate 4/4 Bossa Nova tempo.

A

    C69/G                               D7
E----------------|------------------|----------------|
B---3------------|---3--------------|---3------------|
G---2--4--4--2---|---2--4--4--4-2---|---5--4--4------|
D---2--2--2------|---2--2--2--------|---4--4--4--7---|
A----------------|------------------|---5--5--5------|
E---3--3--3------|---3--3--3--------|----------------|
 1.               2.                 3.

                                  Dm7
E---------------------------|------------------------|
B-----3--3------------------|-----1------------------|
G-----5--5---4--4--4--------|-----2--2---2--2--0-----|
D-----4--4---4--4-----7-----|-----0--0---0-----------|
A-----5--5---5--5-----------|------------------------|
E---------------------------|------------------------|
 4.                          5.

                     _______________  _______________
    Db7b5           |1. CM7   Db7b5 ||2. CM7           
E-------------------|-------|-------||-------|-------|
B---0---------------|-------|-------||-------|-------|
G---0--0--0--0------|---0---|---0---||---0---|---0---|
D---3--3--------3---|---2---|---3---||---2---|---2---|
A---4--4------------|---3---|---4---||---3---|---3---|
E-------------------|-------|-------||-------|-------|
 6.                  7.      8.       15.     16.

B

   DbM7                        Gb7             Dbm7
E-------|-------------------|-------|-------|--------|
B---1---|---2--1-----1------|-------|-------|---4----|
G---1---|---1-----3-----3---|---1---|---3---|---4----|
D---3---|---3-----3-----3---|---2---|---2---|---6----|
A---4---|---4---------------|---1---|---1---|---4----|
E-------|-------------------|---2---|---2---|--------|
 17.     18.                 19.     20.     21. 

                           A9       A7        Dm7
E---------------------|---------|---------|----0-----|
B----5--4-----4-------|----0----|----2----|----1-----|
G----4-----6-----6----|----0----|----0----|----2-----|
D----6-----6----------|----2----|----2----|----0-----|
A----4-----4----------|----0----|----0----|----------|
E---------------------|---------|---------|----------|
 22.                   23.       24.       25.

                             Bb9        Bb7
E----1---0-------0-------|---------|--------0---1----|
B----1-------3------3----|----1----|----3------------|
G----2-------2-----------|----1----|----1------------|
D----0-------0-----------|----0----|----3------------|
A------------------------|----1----|----1------------|
E------------------------|---------|-----------------|
 26.                      27.       28.  

    Em7                  A7b5       Dm7
E---3----------------|------0---|---1----------------|
B---0-------0--1-3---|---4------|---1----------0-1---|
G---0--0-2-----------|---6------|---2----0--2--------|
D---0----------------|---5------|---0--3-------------|
A---2----------------|----------|--------------------|
E---0----------------|---5------|--------------------|
 29.                  30.        31.

          Outro: (Repeat & Fade)
  G7b5       CM7        Db7b5
E-------||---------|---------------------||
B---2---||----0----|----0--0--0--0-------||
G---4---||----0----|----0-----------2----||
D---3---||----2----|----3-----------3----||
A-------||----3----|----4-----------4----||
E---3---||---------|---------------------||
 32.

About Us | Chord Progressions | F.A.Q. | Freebies | Guitar Chords | Guitar Lessons | Home Page | Links | Music News | Site Search | Songwriting | Standards | Store | Tablature | WebRings Copyright © 2005 - 2010 MoneyChords.com