MoneyChords
Resources

Song Analysis(Alan W. Pollack's Notes on ... Series)

Tab & Lyrics

MoneyChords
Store

And I Love Her

Here are the fingerings that I use to play a chord-melody arrangement of The Beatles' 1964 And I Love Her from their "A Hard Day's Night" album. I play it in the key of G not the original key of E. The song is played in a moderate 4/4 tempo.

Intro:

                Am                  G6
E----3-2--||----0----|----3-2--|----0----|----3-2---||
B--3------||----1----|--3------|----0----|--3-------||
G---------||----2----|---------|----0----|----------||
D---------||----2----|---------|----0----|----------||
A---------||----0----|---------|---------|----------||
E---------||---------|---------|----3----|----------||

Verse:

   Am         Em         Am         Em       Am 
E----------|--2-0--3--|----------|--2--0--|----------|
B----0--1--|--0----0--|----0--1--|--0--0--|----0--1--|
G--2----2--|--0----0--|--2----2--|--0--0--|--2----2--|
D--2----2--|----------|--2----2--|--------|--2----2--|
A--0----0--|--2----2--|--0----0--|--2--2--|--0----0--|
E----------|--0----0--|----------|--0--0--|----------|
 1.         2.         3.         4.       5.

   Em         C          D7         G6
E--2-0--3--|--3-0-----|----------|--------|---------||
B--0----0--|--1----1--|--0-------|-----0--|---(0)---||
G--0----0--|--0----0--|--2-------|-----0--|---(0)---||
D----------|--2----2--|--0--2-0--|--2--0--|---(0)---||
A--2----2--|--3----3--|----------|--------|---------||
E--0----0--|----------|--2-------|--3--3--|---(3)---||
 6.         7.         8.         9.       10.

Bridge:

    Em              D         Em              Bm
E-------------|-----------|---2---------|------------|
B---0--0--0---|-----3-----|---0--3--0---|-----3------|
G---0-----0---|-----2-----|---0-----0---|-----2------|
D---2-----2---|-----0-----|---------2---|-----0------|
A---2-----2---|-----------|---2-----2---|-----2------|
E---0---------|-----2-----|---0---------|------------|
 21.           22.         23.           24.

    Em            Bm            D             
E---2---------|-------------|-----------|-----------||
B---0--3--0---|---3--0--3---|---0-------|-----------||
G---0-----0---|---2--2------|---2--2----|----(2)----||
D---------2---|---0--0------|---0-------|-----------||
A---2-----2---|---2--2------|-----------|-----------||
E---0---------|-------------|---2-------|-----------||
 25.           26.           27.         28.

Outro:

              Am               G6                Am
E----3-2--||--0--|----3-2--|---0---|----3-2--|---0---|
B--3------||--1--|--3------|---0---|--3------|---1---|
G---------||--2--|---------|---0---|---------|---2---|
D---------||--2--|---------|---0---|---------|---2---|
A---------||--0--|---------|-------|---------|---0---|
E---------||-----|---------|---3---|---------|-------|

              E
E----3-2--|---0---||
B--3------|---0---||
G---------|---1---||
D---------|---2---||
A---------|---2---||
E---------|---0---||

About Us | Chord Progressions | F.A.Q. | Freebies | Guitar Chords | Guitar Lessons | Home Page | Links | Music News | Site Search | Songwriting | Standards | Store | Tablature | WebRings Copyright © 2006 MoneyChords.com