MoneyChords
Resources

Lead Sheet

Wikipedia

MoneyChords
Store

God Rest Ye Merry, Gentlemen

Here are the fingerings that I use to play a chord-melody arrangement of the 19th century English Carol God Rest Ye Merry, Gentlemen. I play it in the key of Am not the usual key of Em. The song is played in a moderate 4/4 time.

       Am   Bm7b5E7b9Am7Em7FM7Em7FM7E7Am7Bm7b5E7E7sus
E---||----0---------|------------|------------|-0----|
B---||--------5---3-|-1--0-------|----0-1--3-|-0----|
G-2-||-2------2---1-|-0--0-2--0-|-2-1-0--2-|-1--2-|
D---||-2------3---3-|-2--0--2--0-|-2--0-2--3-|-0--0-|
A---||-0------2---2-|-0--2-----2-|----2-0--2-|-2--2-|
E---||------------0-|----0-1--0-|-1--0-------|-0--0-|
      1.             2.           3.           4.

 AmF#m7b5Bm7b5E7 Am7Em7FM7Em7 FM7 E7 Am7Bm7b5  E7
E-----0---------|------------|--------------|--0--0--|
B-----1---5---3-|-1--0-------|-----0--1--3--|--0--0--|
G-2---2---2---1-|-0--0--2--0-|--2--1--0--2--|--1--1--|
D-2---2---3---0-|-2--0--2--0-|--2--0--2--3--|--0--0--|
A-0-------2---2-|-0--2-----2-|-----2--0--2--|--2--2--|
E-----2-------0-|----0--1--0-|--1--0--------|--0--0--|
 5.              6.           7.             8.

   Dm7 G13 G7 Em7Em11Bm7b5E7b9 Am7  D7/F# G7sus G7b9/B
E------------|--3--5--------|------------|----------||
B--6---5--6-|--3--3--5--3--|--1----0-1--|--3----3--||
G--5-7--4--4-|--4--4--2--1--|--0-2--2-2--|--5-5--1--||
D--7----3--3-|--2--2--3--3--|--2----0-0--|--3-3--3--||
A--5-------5-|--------2--2--|--0---------|--5-5--2--||
E-------3--3-|-----------0--|-------2-2--|--3-3-----||
 9.           10.            11.          12.

  CM7Dm7CM7   Bm7b5E7#5E7    Am D7/F#    G7susG7b9/B  
E--0--1--0--|-------------|--------------|-----------|
B--0--1--0--|--5-3--1--0--|-----1--0-----|--3-----3--|
G--0--2--0--|--2-2--1--1--|--2--2-----2--|--5--5--1--|
D--2--0--2--|--3-3--0--0--|--2--0-----0--|--3--3--3--|
A--3-----3--|--2-2--2--2--|--0-----------|--5--5--2--|
E-----------|-------0--0--|-----2-----2--|--3--3-----|
 13.         14.           15.            16.

   CM7 Dm7 Em7 FM7     Bm7b5 E7#5 E7        Am
E---0---1---3---5---|-----------------|-------------||
B---0---1---3---5---|---5--3---1--0---|-------------||
G---0---2---4---5---|---2--2---1--1---|------2------||
D---2---0---2---3---|---3--3---0--0---|------2------||
A---3---------------|---2--2---2--2---|------0------||
E-------------------|----------0--0---|-------------||
 17.                 18.               19.

About Us | Chord Progressions | F.A.Q. | Freebies | Guitar Chords | Guitar Lessons | Home Page | Links | Music News | Site Search | Songwriting | Standards | Store | Tablature | WebRings Copyright © 2008 - 2009 MoneyChords.com