MoneyChords
Resources

Chords & Lyrics

Lyrics

Lesson (WholeNote)

Wikipedia

MoneyChords
Store

Frosty The Snow Man

Here are the fingerings that I use to play a chord-melody arrangement of Steve Nelson and Jack Rollins' 1950 Christmas standard Frosty The Snow Man. I play it in the key of G not the usual key of C. The song is played in a medium 4/4 time.

A

 GM7 Em7 Am7 Bm7 G7 F#7 G7   C6Em7/BA13Ab7#5GM7F#7F13
E-----------|-----3--2--3--|--5-----------|-----2--3-|
B--3--0--1--|--3--3--2--3--|--5--8--7--5--|-3---2--3-|
G--4--0--0--|--2--4--3--4--|--5--7--6--5--|-4---3--2-|
D--4--0--2--|--0--3--2--3--|--5--5--5--4--|-4---2--1-|
A-----2--0--|--2--5--4--5--|--3-----------|-----4----|
E--3--0-----|-----3--2--3--|-----7--5--4--|-3-3-2--1-|
 1.          2.             3.             4. 

  Bm7Am7Ab7G13  Gb7#5F13E7D7/AD9  Bm7Bb9Am9F#o   G6
E-5--3---------|-----3----------|-------------|-----||
B-3--1--7--5---|--3--3--0--3--5-|--3--1--0----|-----||
G----0--5--4---|--3--2--1--5--5-|--2--1--0--2-|--0--||
D-4--2-----3---|--2--1--0--4--4-|--0--0--2--1-|--2--||
A-2--0--6------|--------2-----5-|--2--1--0----|--2--||
E-------4--3-3-|--2--1--0--5----|-----------2-|--3--||
 5.             6.               7.            8.

A

 GM7 Am9 Ab7  GM7F13 F#7G7   Am7Em7A13Ab7#5 GM7 B9C9
E-----------|-----3--2--3--|--5-----------|-----2--3-|
B--3--0-----|--3--3--2--3--|--5--8--7--5--|-3---2--3-|
G--4--0--5--|--4--2--3--4--|--5--7--6--5--|-4---2--3-|
D--4--2--4--|--4--1--2--3--|--5--5--5--4--|-4--------|
A-----0-----|--------4--5--|--0-----------|-----2--3-|
E--3-----4--|--3--1--2--3--|-----7--5--4--|-3-3------|
 9.          10.            11.            12. 

Bm7Bb13Ab7G13Gb7#5F13E7Am11D9 Bm7Bb9Am9F#o  G6 Dm7G7
E-5----------|----3----------|------------|---------||
B-3--8--7-5--|-3--3--0--3--5-|-3--1--0----|---------||
G----7--5-4--|-3--2--1--5--5-|-2--1--0--2-|-0---0-0-||
D-4--6----3--|-2--1--0--5--4-|-0--0--2--1-|-2---3-3-||
A-2-----6----|-------2-----5-|-2--1--0----|-2---5-2-||
E----6--4-3-3|-2--1--0--5----|----------2-|-3-3---3-||
 13.          14.             15.          16.

B

  CM7 Am7    Bm7   Bb7Bb7b9  Am7 Ab7b5AbM7  GM7 G#o
E-0-0-3-3--|--2-----------|-----0--------|-----------|
B-0---1----|--3--5--3--0--|--1-----3-----|-----------|
G-0---0----|--2-----1--1--|--0-----5--5--|--4---4----|
D-2---2----|--4-----3--0--|--2-----4--5--|--4---3----|
A-3---0----|--2-----1--1--|--0-----------|-----------|
E----------|--------------|--------4--4--|--3-3-4-4--|
 17.        18.            19.            20.

  F#m7 F13    F#m7 Ao      Em11Em7 A#oA7   Am11 Ab7b5
E-----------|--2-2-5-5-5--|--5--3--------|----------||
B------3-3--|--2---4------|--3--3--7--5--|--3---3---||
G--2-2-2----|--2---5------|--4--4--6--6--|--5---5---||
D--2---1----|--2---4------|--2--2--5--5--|--5---4---||
A-----------|------0------|-----------7--|----------||
E--2---1----|--2----------|--------6--5--|--5-5-4-4-||
 21.         22.           23.            24.

A

   GM7 Em7   Am11Am7 B9 C9   C6 Em7A13Ab7#5 GM7B9Bb13
E-----------|-----3--2--3--|--5-----------|-----2--3-|
B--3---0--1-|--3--1--2--3--|--5--8--7--5--|--3--2--1-|
G--4---0----|--0--0--2--3--|--5--7--6--5--|--4--2--1-|
D--4---0----|--2--2--------|--5--5--5--4--|--4-------|
A------2----|--0--0--2--3--|--3-----------|-----2--1-|
E--3-3-0----|--------------|-----7--5--4--|--3-------|
 25.         26.            27.            28. 

  Bm7Am7Ab7G13  Gb7#5F13E7D7/AD9  Bm7Bb9Am9F#o   G6
E--5--3--------|-----3----------|-------------|-----||
B--3--1--7--5--|--3--3--0--3--5-|--3--1--0----|-----||
G-----0--5--4--|--3--2--1--5--5-|--2--1--0--2-|--0--||
D--4--2-----3--|--2--1--0--4--4-|--0--0--2--1-|--2--||
A--2--0--6-----|--------2-----5-|--2--1--0----|--2--||
E--------4--3--|--2--1--0--5----|-----------2-|--3--||
 29.            30.              31.           32.

C

   GM7   Em7     Am7   D7      G6   E7b9     Am D/F#
E-------------|--0----------|------------|-----------|
B--3-3-3-3-3--|--1-3-3-3-3--|--5-3--0-3--|-----------|
G--4-----0----|--0-----5----|--4----1----|---2---2---|
D--4-----0----|--2-----4----|-------3----|---2---0---|
A--------2----|--0-----5----|--5----2----|---0-------|
E--3-----0----|-------------|--3----0----|-------2---|
 33.           34.           35.          36.

   GM7   Em7     Am7   D7      Am11   D6/F#    G6  
E-------------|--0----------|---------------|-------||
B--3-3-3-3-3--|--1-3-3-3-3--|--3-3-1--0-----|-------||
G--4-----0----|--0-----5----|--0------2--2--|---0---||
D--4-----0----|--2-----4----|--2------0-----|---2---||
A--------2----|--0-----5----|--0------------|---2---||
E--3-----0----|-------------|---------2-----|---3---||
 37.           38.           39.             40.

About Us | Chord Progressions | F.A.Q. | Freebies | Guitar Chords | Guitar Lessons | Home Page | Links | Music News | Site Search | Songwriting | Standards | Store | Tablature | WebRings Copyright © 2008 - 2009 MoneyChords.com