MoneyChords
Resources

Lyrics

Vanilla Book

MoneyChords
Store

Fly Me To The Moon

Here are the fingerings that I use to play a chord-melody arrangement of Bart Howard's 1954 standard Fly Me To The Moon. I play it in the key of Em not the original key of Am. The song is played in a moderate 4/4 tempo. I used the chord progression from "The Real Book - Volume II."

   Em7          Am7           D7            GM7  G7
E--3-2--0----|-------0-3---|--2-0--------|-----------|
B--0----0-3--|--1-3--1-----|--1----3-1---|-------0---|
G--0----0----|--0----0-----|--2----2-----|---4---0---|
D--0----0----|--2----2-----|--0----0-----|---4---3---|
A--2----2----|--0----0-----|-------------|-------2---|
E--0----0----|-------------|-------------|---3---3---|
 1.           2.            3.            4.

   CM7           F#o          B7             Em E7b9
E--0----------|---------0--|-------------|-----------|
B--0-3--1-0---|----0--1----|--4-1--0-----|-----------|
G--0----0-----|--2----2----|--2----2-2---|---0---1---|
D--2----2-----|--1----1----|--1----1-----|---2---3---|
A--3----3-----|------------|--2----2-----|---2---2---|
E-------------|--2----2----|-------------|---0---0---|
 5.            6.           7.            8.
 
   Am7        D7 Am7  D7     Bm     E7      Am7
E----0--0--|--0---3---2--|-------|-------|-----------|
B-------1--|--1---1---1--|---3---|--3----|----1--1---|
G--2----0--|--2---0---2--|---4---|--1----|--0----0---|
D--2----2--|--0---2---0--|---4---|--0-4--|--2----2---|
A--0----o--|------0------|---2---|--2----|--0----0---|
E----------|-------------|-------|--0----|-----------|
 9.         10.           11.     12.     13.
 
   D7           GM7    F#m7 B7
E----0-----|--------|-----------||
B--1----3--|--1-----|---0---0---||
G--2----2--|--2--4--|---2---2---||
D--0----0--|--0--4--|---2---1---||
A----------|--------|-------2---||
E----------|-----3--|---2-------||
 14.        15.      16.

   Em7          Am7           D7            GM7  G7
E--3-2--0----|-------0-3---|--2-0--------|-----------|
B--0----0-3--|--1-3--1-----|--1----3-1---|-------0---|
G--0----0----|--0----0-----|--2----2-----|---4---0---|
D--0----0----|--2----2-----|--0----0-----|---4---3---|
A--2----2----|--0----0-----|-------------|-------2---|
E--0----0----|-------------|-------------|---3---3---|
 17.          18.           19.           20.

   CM7           F#o          B7             Em  E7
E--0----------|---------0--|-------------|-----------|
B--0-3--1-0---|----0--1----|--4-1--0-----|-----------|
G--0----0-----|--2----2----|--2----2-2---|---0---1---|
D--2----2-----|--1----1----|--1----1-----|---2---0---|
A--3----3-----|------------|--2----2-----|---2---2---|
E-------------|--2----2----|-------------|---0---0---|
 21.           22.          23.           24.
 
                          ___________________________
   Am7        D7 Am7  D7 |1. Bm7b5 Bo       E7      
E----0--0--|--0---3---2--|--------------|------------|
B-------1--|--1---1---1--|----3----3----|----3--4----|
G--2----0--|--2---0---2--|----4----1----|----1-------|
D--2----2--|--0---2---0--|----3----3----|----0-------|
A--0----o--|------0------|----2----2----|----2-------|
E----------|-------------|--------------|----0-------|
 25.        26.           27.            28.
__________________________________  _________________
   Am7         D7     G6      B7  ||2.GM7     G7
E--0-----|--------|-------|-------||---7---|--7--3---|
B--1-----|--------|-------|---0---||---7---|--6--3---|
G--0--0--|--0--2--|---0---|---2---||---7---|--7--4---|
D--2--2--|--2--0--|---2---|---1---||---5---|--5--3---|
A--0--0--|--0-----|---2---|---2---||-------|---------|
E--------|-----2--|---3---|-------||-------|---------|
 29.      30.      31.     32.      59.     60.
 
_____________________________________
   C6        D7 D7b9     G6          |
E--5-----|---2---5---|---3---|-------||
B--5--5--|---1---4---|---5---|-------||
G--5--5--|---2---5---|---4---|-------||
D--5--5--|---0---4---|-------|-------||
A--3--3--|-----------|---5---|-------||
E--------|-----------|---3---|-------||
 61.      62.         63.     64.

About Us | Chord Progressions | F.A.Q. | Freebies | Guitar Chords | Guitar Lessons | Home Page | Links | Music News | Site Search | Songwriting | Standards | Store | Tablature | WebRings Copyright © 2005 MoneyChords.com