The First Noel

MoneyChords
Resources

Chord-Melody

Lyrics

Sheet Music (pdf)

Wikipedia

MoneyChords
Store

The First Noel

Here are the fingerings that I use to play a chord-melody arrangement of William Sandys' 1833 Christmas carol The First Noel. I play it in the key of G. The song is played moderately in 3/4 waltz time.

A

 D6/F#   G6    Em7    D/F# C6 D7 G/B Bm7Am7 GM7C6 D7
E-----|--------------|-----0--2-|-3--2--0-|----0-2-|
B-0---|--------0--1--|--3--1--1-|-0--3--1-|-3--1--1-|
G2-2-|--0--2--0-----|--2--2--2-|-0--2--0-|-4--2--2-|
D-0---|--2-----0-----|--0--2--0-|-0--4--2-|-4--2--0-|
A-----|--2-----2-----|-----3----|-2--2--0-|----3----|
E-2---|--3-----0-----|--2-------|---------|-3-------|
       1.             2.         3.        4.

 G/B Bm7 Am7  GM7 Am7 D7   G/B Am11 D7  GM7 D6/F#
3--3-2--0--|-----0---2---|--3--------|------------||
B--0--3--1--|--3--1---1---|--0--3--1--|---3--0-----||
G--0--2--0--|--4--0---2---|--0--0--2--|---4--2--2--||
D--0--4--2--|--4--2---0---|--0--2--0--|---4--0-----||
A--2--2--0--|-----0-------|--2--0-----|------------||
E-----------|--3----------|-----------|---3--2-----||
 5.          6.            7.          8.

A

    G6    Em7   D/F# C6 D7  G/B Bm7Am7   GM7C6 D7
E--------------|-----0--2--|--3--2--0--|-----0-2---|
B--------0--1--|--3--1--1--|--0--3--1--|--3--1--1---|
G--0--2--0-----|--2--2--2--|--0--2--0--|--4--2--2---|
D--2-----0-----|--0--2--0--|--0--4--2--|--4--2--0---|
A--2-----2-----|-----3-----|--2--2--0--|-----3------|
E--3-----0-----|--2--------|-----------|--3---------|
 9.             10.         11.         12.

 G/B Bm7 Am7  GM7 Am7 D7   G/B Am11 D7  GM7 D6/F#
3--3-2--0--|-----0---2---|--3--------|------------||
B--0--3--1--|--3--1---1---|--0--3--1--|---3--0-----||
G--0--2--0--|--4--0---2---|--0--0--2--|---4--2--2--||
D--0--4--2--|--4--2---0---|--0--2--0--|---4--0-----||
A--2--2--0--|-----0-------|--2--0-----|------------||
E-----------|--3----------|-----------|---3--2-----||
 13.         14.           15.         16.

B

   G6    Em7      Bm7 G/B       CM7 C6     GM7 D/F#
E--------------|------3--2--|---0---0---|-----------|
B--------0--1--|--3---0-----|---0---1---|---3---3---|
G--0--2--0-----|--2---0-----|---0---2---|---4---2---|
D--2-----0-----|--0---0-----|---2---2---|---4---0---|
A--2-----2-----|--2---2-----|---3---3---|-----------|
E--3-----0-----|------------|-----------|---3---2---|
 17.            18.          19.         20.

 Em7GM7/DCM7  Bm7Am7 D7    G/BAm11D7     GM7  (D7)
E--3--2--0--|-----0--2---|--3---------|------------||
B--0--0--0--|--3--1--1---|--0--3--1---|------------||
G--0--0--0--|--2--0--2---|--0--0--2---|---4--------||
D--0--0--2--|--0--2--0---|--0--2--0---|---4--------||
A--2-----3--|--2--0------|--2--0------|------------||
E--0--------|------------|------------|---3--------||
 21.         22.          23.          24.

About Us | Chord Progressions | F.A.Q. | Freebies | Guitar Chords | Guitar Lessons | Home Page | Links | Music News | Site Search | Songwriting | Standards | Store | Tablature | WebRings Copyright © 2006 - 2009 MoneyChords.com