MoneyChords
Resources

Chord-Melody (Keroas)

Chords & Lyrics

Lyrics

Tab

MoneyChords
Store

Dream A Little Dream Of Me

Here are the fingerings that I use to play a chord-melody arrangement of Wilbur Schwandt, Fabian Andree, and Gus Kahn's 1930 standard Dream A Little Dream Of Me. I play it in the key of C not the usual key of G. The song is played in a medium 4/4 tempo. Alternate chord substitutions are indicated in parentheses above the chord I used.

A	

     (B7)                     (B7) 
     (Ebo)       (Dm7)
   C6             Ab7 G7    C6            A7 Em7b5 A
E--------------|---------|--------------|----0-------|
B--1--0-1-0----|---------|--1--0-1-0----|--2-2------|
G--2--2-----2--|--5---4--|--2--2-----2--|--0----3--2-|
D--2--2--------|--4---3--|--2--2--------|--2----0--2-|
A--3--3--------|--6---5--|--3--3--------|--0----2--0-|
E--------------|--4---3--|--------------|-------0----|
 1.             2.        3.             4.

  (F               Fm     )
                  (Bb7    )  (Em7     A7 ) (G7sus G7)
   Dm7            Dm7b5 Bb9   C       Am7   Dm11 G7
E--------------|-----------|----------0-5--|--3-3--||
B--3--1-3-1----|--3-1---1--|------1-3-1----|--1-3--||
G--2--2-----2--|--1---1-1--|--0-2-----0----|--2-4--||
D--3--0--------|--0-----0--|--2-------2----|--0-3--||
A--3-----------|--------1--|--3-------0----|-----5--||
E--------------|-----------|---------------|-----3--||
 5.             6.          7.              8.

A

      (B7)       (Dm7)
   C6             Ab7 G7    C6            A7 Em7b5 A
E--------------|---------|--------------|----0-------|
B--1--0-1-0----|---------|--1--0-1-0----|--2-2------|
G--2--2-----2--|--5---4--|--2--2-----2--|--0----3--2-|
D--2--2--------|--4---3--|--2--2--------|--2----0--2-|
A--3--3--------|--6---5--|--3--3--------|--0----2--0-|
E--------------|--4---3--|--------------|-------0----|
 9.             10.       11.            12.

                  (Bb7    ) (Em7Am7D7b9G7)
   Dm7            Dm7b5 Bb9  C  Am7 Ab7G7  C6 Bbm7Eb7
E-------------|-----------|---------------|---1--3-||
B--3--1-3-1---|--3-1---1--|------1-3-4-3--|-1--2-2-||
G--2--2-----2-|--1---1-1--|--0-2-0---5-4--|-2--1-3-||
D--3--0-------|--0-----0--|--2---2---4-3--|-2--3--1||
A--3----------|--------1--|--3---0---6-5--|-3--1----||
E-------------|-----------|----------4-3--|---------||
 13.           14.         15.             16.

B

  Ab6 Fm7       Bbm11 Eb7    Ab6 Fm7       Bbm11 Eb7
E--4--1-4-1--|-------------|--4--1-4-1--|------------|
B--6--1------|--4-1-4------|--6--1------|---4----4---|
G--5--1------|--1-------0--|--5--1------|---1----6---|
D-----1------|--3-----3----|-----1------|---3----5---|
A--6--3------|--1-----1----|--6--3------|---1----6---|
E--4--1------|-------------|--4--1------|------------|
 17.          18.           19.          20.

  Ab6 Fm7       Bbm11   Eb7     Ab6 Fm7     Dm11 G7
E--4--1-4-1--|---------------|--4-----1--|--3----3--||
B--6--1------|--4-1--4-------|--6---4----|--1----3--||
G--5--1------|--1---------0--|--5---1----|--2----4--||
D-----1------|--3-------3----|------1----|--0----3--||
A--6--3------|--1-------1----|--6---3----|-------5--||
E--4--1------|---------------|--4---1----|-------3--||
 21.          22.             23.         24.

A

     (Ebo)       (Dm7)
   C6             Ab7 G7    C6 CM7        A7 Em7b5 A
E--------------|---------|--------------|----0-------|
B--1--0-1-0----|---------|--1--0-1-0----|--2-2------|
G--2--2-----2--|--5---4--|--2--0-----2--|--0----3--2-|
D--2--2--------|--4---3--|--2--2--------|--2----0--2-|
A--3--3--------|--6---5--|--3--3--------|--0----2--0-|
E--------------|--4---3--|--------------|-------0----|
 25.            26.       27.            28.

   Dm7            Dm7b5 Bb9  Em7 Am7 Fm7 G7     C6
E--------------|-----------|----------------|------||
B--3--1-3-1----|--3-1---1--|------1-3-4--3--|---1--||
G--2--2-----2--|--1---1-1--|--0-2-0---1--4--|---2--||
D--3--0--------|--0-----0--|--0---2---1--3--|---2--||
A--3-----------|--------1--|--2---0---3--5--|---3---||
E--------------|-----------|--0-------1--3--|-------||
 29             30.         31.              32.

About Us | Chord Progressions | F.A.Q. | Freebies | Guitar Chords | Guitar Lessons | Home Page | Links | Music News | Site Search | Songwriting | Standards | Store | Tablature | WebRings Copyright © 2006 - 2010 MoneyChords.com