MoneyChords
Resources

Chord Progression (MoneyChords)

Lyrics

MoneyChords
Store

Satin Doll

Here are the fingerings that I use to play a chord-melody arrangement of the 1953 Duke Ellington standard Satin Doll. I play it in the standard key of C. The song is played in a moderate 4/4 tempo.

   Dm7      G7       Dm7 G7        Em7       A7
E--5-----5--3--5--|--5---3--5---|--7------7--5--7---| 
B--6--8-----3-----|--6---3------|--8--10-----5------| 
G--5--------4-----|--5---4------|--7---------6------| 
D--7--------3-----|--7---3------|--9---------5------| 
A--5--------5-----|--5---5------|--7---------7------| 
E-----------3-----|------3------|------------5------| 
 1.                2.            3.
                                            ________
                                           |1.
   Em7 A7       D7             Db7           Cmaj7
E--7---5--7--|--10------10--|--------------|--------| 
B--8---5-----|--10--13--10--|--11---9--11--|---8----|
G--7---6-----|--11------11--|--10--10------|---9----| 
D--9---5-----|--10------10--|---9---9------|---9----| 
A--7---7-----|--12------12--|------11------|--------| 
E------5-----|--10------10--|---9---9------|---8----| 
 4.           5.             6.             7. 
 _________  _____________
          ||2.           |
  Em7 A7   Cmaj7            Gmaj7        C7   
E--------||-----|-------||--------------------------| 
B--8--8--||--8--|--(8)--||--13--11--10---8--10--11--| 
G--7--6--||--9--|--(9)--||--10-----------9----------| 
D--5--5--||--9--|--(9)--||--12-----------8----------| 
A--7--7--||-----|-------||--10----------10----------| 
E-----5--||--8--|--(8)--||---------------8----------| 
 8.        15.   16.      17.

    Gmaj7        C7             Fmaj7
E----------------------------|----8----|-----(8)----| 
B---13--11--10---8--10--11---|---10----|----(10)----| 
G---10-----------9-----------|----9----|-----(9)----| 
D---12-----------8-----------|---10----|----(10)----| 
A---10----------10-----------|----8----|-----(8)----| 
E----------------8-----------|---------|------------| 
 18.                          19.       20.

   Am7       D7              Am7       D7
E--10--8--7---------------|--10--8--7---------------| 
B---8--------10--12--13---|---8--------10--12--13---| 
G---9--------11-----------|---9--------11-----------| 
D--10--------10-----------|--10--------10-----------| 
A---0--------12-----------|---0--------12-----------| 
E------------10-----------|------------10-----------| 
 21.                       22.

        Dm7      G9               Em7     A7
E-------10-------10-------|-------7-------5--------|| 
B-------10-------10-------|-------8-------8--------|| 
G-------10-------10-------|-------7-------6--------|| 
D-------10--------9-------|-------5-------5--------|| 
A----------------10-------|-------7-------7--------|| 
E-------10----------------|---------------5--------|| 
 23.                       24.  

About Us | Chord Progressions | F.A.Q. | Freebies | Guitar Chords | Guitar Lessons | Home Page | Links | Music News | Site Search | Songwriting | Standards | Store | Tablature | WebRings Copyright © 2004 - 2009 MoneyChords.com