MoneyChords
Resources

Chords & Lyrics

Wikipedia

MoneyChords
Store

What Are You Doing The Rest Of Your Life?

Here are the fingerings that I use to play a chord-melody arrangement of Alan & Marilyn Bergman and Michel Legrand's 1969 standard What Are You Doing The Rest Of Your Life? I play it in the key of Em not the usual key of Am. The song is played in a slow 4/4 ballad time. I used the chord progression from the "[Alfred] Just Standards Real Book."

A
 
        B7b9     Em    Em/D# Em/D  C#m7b5    CM9
E-----------0-||-2-2-0---2-|-2-0---2-3-2-0-|---------|
B-----0-1-4---||-0-------0-|-0-----0-------|-3-3-1-3-|
G-0-2---2-----||-0-------0-|-0-----0-------|-0-----0-|
D-------1-----||-2-------1-|-0-------------|-0-----0-|
A-------2-----||-----------|-------4-------|-3-----3-|
E-------------||-----------|---------------|---------|
                1.          2.              3.

  CM9          Am9      Am9/G      F#m7b5  B7#5
E------0-----|--------|------------|-----|---------0-|
B-3-1-3--3-1-|-0-0--0-|-0---0-1-0--|-----|----0-1-4--|
G-0---0------|-5----5-|-0-2-0----2-|-----|-0-2-------|
D-0---0------|-5--7-5-|-2---2------|---4-|-1---------|
A-3---3------|-0----0-|------------|--3--|-2---------|
E------------|--------|-3---3------|-2---|-----------|
 4.           5.       6.           7.    8.

  Em    Em/D#  Em/D  C#m7b5    CM9
E-2-2-0---2--|-2-0---2-3-2-0-|---------|-------0-----|
B-0-------0--|-0-----0-------|-3-3-1-3-|-3-1-3---3-1-|
G-0-------0--|-0-----0-------|-0-----0-|-0---0-------|
D-2-------1--|-0-------------|-0-----0-|-0---0-------|
A------------|-------4-------|-3-----3-|-3---3-------|
E------------|---------------|---------|-------------|
 9.           10.             11.       12.

   Am9         Am9/G            EM7
E-----------|---------------|---------|------0--7---||
B--0-0---0--|--0----0-1-0---|---------|---0--0------||
G--5-----5--|--0-2--0----2--|----1----|---1--1------||
D--5--7--5--|--2----2-------|----1----|---1--1------||
A--0-----0--|---------------|----2----|---2--2------||
E-----------|--3----3-------|----0----|---0--0------||
 13.         14.             15.       16.

B

  F#m7b5  B7      EM7 C#m7 F#m7b5  B7        EM7
E-7-6-7-4-5-4-5-3-|-4----|-7-6-7-4-5-4-5-3-|-4-4-4-4-|
B-5---5---4---4---|-4----|-5---5---4---4---|-4-4-----|
G-5---5---4---4---|-4--4-|-5---5---4---4---|-4-4-----|
D-4---4---4---4---|-2--2-|-4---4---4---4---|-2-2-----|
A-----------------|----4-|-----------------|---------|
E-----------------|------|-----------------|---------|
 17.               18.    19.               20.

  D#m11   G#7         C#M7          Dm11    G7
E-4-3-4-1-2-1-2-0--|--1-------1--|--3-2-3-0-1-0-1----|
B-2---2---1---1----|--1------2---|--1---1---0---0-4--|
G-3---3---1---1----|--1-1-0-1----|--2---2---0---0----|
D-1---1---1---1----|--3-3-3------|--0---0---0---0----|
A------------------|--4-4-4------|-------------------|
E------------------|-------------|-------------------|
 21.                22.           23.

   CM7 B7#5
E---0------------0---||
B---0------0-1-4-----||
G---0--0-2-----------||
D---2--1-------------||
A---3--2-------------||
E--------------------||
 24.

C

  Em    Em/D#  Em/D  C#m7b5    CM9
E-2-2-0---2--|-2-0---2-3-2-0-|---------|-------0-----|
B-0-------0--|-0-----0-------|-3-3-1-3-|-3-1-3---3-1-|
G-0-------0--|-0-----0-------|-0-----0-|-0---0-------|
D-2-------1--|-0-------------|-0-----0-|-0---0-------|
A------------|-------4-------|-3-----3-|-3---3-------|
E------------|---------------|---------|-------------|
 25.          26.             27.       28.

    Am9           Am9/G             F#m7      B7
E-------------|-----------------|----2----|---2--3---|
B---0-0---0---|---0----0-1-0----|----2----|---0--0---|
G---5-----5---|---0-2--0----2---|----2----|---2--2---|
D---5--7--5---|---2----2--------|----2----|---1--1---|
A---0-----0---|-----------------|----4----|---2--2---|
E-------------|---3----3--------|----2----|----------|
 29.           30.               31.       32.

   C6       F#m7b5 B7          CM7         C7b5
E--5-5-3-5--|--5-3-5-7-5-3--|--0-0---0--|-------2-0--|
B--5-----5--|--5---4--------|--0---3-0--|--5-3-5---3-|
G--5-----5--|--5---4--------|--0-----0--|--3---3-----|
D--5-----5--|--4---4--------|--2-----2--|--4---4-----|
A--3-----3--|---------------|--3-----3--|--3---3-----|
E-----------|---------------|-----------|------------|
 33.         34.             35.         36.

   Em/B  G7/B    F#m7b5 B7#5     Em    (F#m7b5 B7#5)
E-------------|--------------|---0---|--------------||
B--0-0---0----|--0-0----0-0--|---0---|--------------||
G--0---2-0-2--|--2---2--0----|---0---|--------------||
D--2-----3----|--2------1----|---2---|--------------||
A--2-----2----|--3------2----|---2---|--------------||
E-------------|--2-----------|---0---|--------------||
 37.           38.            39.     40. 
Alternate Fingerings

(1) Bars 1 through 6:

        B7b9     Em   Em(M7) Em7   Em6       CM9  Bm7
E-----------0-||-2-2-0---2-|-2-0---2-3-2-0-|---------|
B-----0-1-4---||-0-------0-|-0-----0-------|-3-3-1-3-|
G-0-2---2-----||-0-------0-|-0-----0-------|-0-----2-|
D-------1-----||-2-------1-|-0-------------|-0-----0-|
A-------2-----||-2-------2-|-2-----4-------|-3-----2-|
E-------------||-0-------0-|-0-----0-------|---------|
                1.          2.              3.

  A#7 Am7     G#m7 GM7 F#m11 F7b5   F#m7b5 B7#5
E------0-----|--------|------------|-----|---------0-|
B-3-1-3--3-1-|--------|-0---0-1-0--|-----|----0-1-4--|
G-1---0------|-4-4-2-4|-2-2-2----2-|-----|-0-2-------|
D-3---2------|-4-----4|-2---1------|---4-|-1---------|
A-1---0------|-6------|------------|--3--|-2---------|
E------------|-4-----3|-2---1------|-2---|-----------|
 4.           5.       6.           7.    8.

(2) Bars 13 and 16:

  Am9         F#m7b5 B7b9     EM7 F#m7  E/G# C#m7
E-----------|---------------|---------|---------7---||
B--0-0---0--|--0----0-1-0---|---------|------5------||
G--2--2--2--|--2-2--2----2--|--1---2--|---4--4------||
D--2-----2--|--2----1-------|--1---2--|---2--6------||
A--0-----0--|-------2-------|--2------|------4------||
E-----------|--2------------|--0---2--|---4---------||
 13.         14.             15.       16.

(3) Bars 17 through 19:

  F#m7b5  F#o     EM7 C#m7 F#m7b5  F#o       EM7
E-7-6-7-4-5-4-5-3-|-4----|-7-6-7-4-5-4-5-3-|-4-4-4-4-|
B-5---5---4---4---|-4----|-5---5---4---4---|-4-4-----|
G-5---5---5---5---|-4--4-|-5---5---5---5---|-4-4-----|
D-4---4---4---4---|-2--2-|-4---4---4---4---|-2-2-----|
A-----------------|----4-|-----------------|---------|
E-----------------|------|-----------------|---------|
 17.               18.    19.               20.

(4) Bar 21 through 23:

  D#m11   D#o       C#M7 CM7 C#M7   Dm11    Do
E-4-3-4-1-2-1-2-0--|--1-------1--|--3-2-3-0-1-0-1----|
B-2---2---1---1----|--1------2---|--1---1---0---0-4--|
G-3---3---2---2----|--1-1-0-1----|--2---2---1---1----|
D-1---1---1---1----|--3-3-2-3----|--0---0---0---0----|
A------------------|--4-4-3-4----|-------------------|
E------------------|-------------|-------------------|
 21.                22.           23.

(5) Bars 30 through 32:

    Am9           Am9/G F#m7b5  F#m7/B C9    B9 B9+
E-------------|-----------------|--2---2--|---2--3---|
B---0-0---0---|---0----0-1-0----|--2---3--|---2--2---|
G---5-----5---|---0-2--2----2---|--2---3--|---2--2---|
D---5--7--5---|---2----2--------|--2------|---1--1---|
A---0-----0---|-----------------|--2---3--|---2--2---|
E-------------|---3----2--------|---------|----------|
 29.           30.               31.       32.
 
(6) Bars 33 through 36:

  C6    Am7 F#m7b5 F#o  B7b9+  CM7   C6   FM7   C7b5
E--5-5-3-5--|--5-3-5-7-5-3--|--0-0---0--|--0----2-0--|
B--5-----5--|--5---4-----1--|--0---3-1--|--1-3-5---3-|
G--5-----5--|--5---5-----2--|--0-----2--|--2---3-----|
D--5-----5--|--4---4-----1--|--2-----2--|--2---4-----|
A--3-----0--|---------------|--3-----3--|------3-----|
E-----------|---------------|-----------|--1---------|
 33.         34.             35.         36.

About Us | Chord Progressions | F.A.Q. | Freebies | Guitar Chords | Guitar Lessons | Home Page | Links | Music News | Site Search | Songwriting | Standards | Store | Tablature | WebRings Copyright © 2008 MoneyChords.com