MoneyChords
Resources

Chord-Melody

Fingerstyle

Fingerstyle (pdf)

Lyrics

Vanilla Book

MoneyChords
Store

Cry Me A River

Here are the fingerings that I use to play a chord-melody arrangement of Arthur Hamilton's 1953 standard Cry Me A River. I play it in the key of Am not the original key of Cm. The song is played in a medium 4/4 tempo. I used the chord progression from "Just Standards Real Book."

A

   Am Am#5   Am6 Am7   Dm7    G13     CM7 Bm7b5 E7 
E-7---5-----|-------|------5--3-3--|--0----0------0--|
B-5---5-5---|-0-----|---------0----|--0----3----4----|
G-5---5---5-|-2---2-|--2-5----0----|--0----2----1----|
D-----3-----|-4---2-|--3------3----|--2----3----0----|
A-0---0-----|-0---0-|--5------2----|--3----2----2----|
E-----------|-------|---------3----|------------0----|
 1.          2.      3.             4.

  Em7b9 A7b9  D9         G#7   G7       C Bm7b5 E7
E-5-6-5-6-5--|-0------0-|-------------|-------------||
B-3-----5----|-3-3--3---|-4-----3-1-1-|--1---3---0--||
G-3-----6----|-5--5-5---|-5-7-5-0--2--|--0---2---1--||
D-2-----5----|-4----4---|-4-----3-----|--2---3---0--||
A-------0----|-5----5---|-6-----2-----|--3---2---2--||
E------------|----------|-4-----3-----|----------0--||
 5.           6.         7.            8.

  Am  Am#5   Am6 Am7   Dm7    G13     CM7 Bm7b5 E7 
E-7---5-----|-------|------5--3-3--|--0----0------0--|
B-5---5-5---|-0-----|---------0----|--0----3----4----|
G-5---5---5-|-2---2-|--2-5----0----|--0----2----1----|
D-----3-----|-4---2-|--3------3----|--2----3----0----|
A-0---0-----|-0---0-|--5------2----|--3----2----2----|
E-----------|-------|---------3----|------------0----|
 9.          10.     11.            12.

  Em7b9 A7b9   D9         G#7   G7      C F#m7b5 B7
E-5-6-5-6-5--|-0------0-|-------------|-------------||
B-3-----5----|-3-3--3---|-4-----3-1-1-|--1---1---0--||
G-3-----6----|-5--5-5---|-5-7-5-0--2--|--0---2---2--||
D-2-----5----|-4----4---|-4-----3-----|--2---2---1--||
A-------0----|-5----5---|-6-----2-----|--3-------2--||
E------------|----------|-4-----3-----|------2------||
 13.          14.        15.           16.

B

   Em    C#m7b5     F#m7b5 B7     Em    G13 F#m7b5 B7
E--0-2-3-------0--|--2-0-3-2-0--|-3-0-7-5-3-|--5-----|
B--0-----0-2-4----|--1-----0----|-0-----5---|--5--0--|
G--0-----0--------|--2-----2----|-0-----4---|--5--1--|
D--2-----2--------|--2-----1----|-------3---|--4--2--|
A--2-----4--------|--0-----2----|-2---------|--0--1--|
E--0--------------|-------------|-0-----3---|--------|
 17.               18.           19.         20. 

   Em7    C#m7b5      F#m7b5 B7    Bm11     E7 
E--0-2-3--------0--|--2-0-3--2--|--2-0-2-0--2-0-4-0--|
B--0------0-2-4----|--1------0--|--0--------0--------|
G--0------0--------|--2------2--|--2--------1--------|
D--0------2--------|--2------1--|--0--------0--------|
A--2------4--------|--0------2--|--2--------2--------|
E--0---------------|------------|-----------0--------|
 21.                22.          23.          

    Bm7       E7    E7b9 
E---2---2-----2-0-4--0---||
B---3-5---5---0------0---||
G---2---------1------1---||
D---4---------0------3---||
A---2---------2------2---||
E-------------0------0---||

C

   Am Am#5  Am6 Am7    Dm7    G13     CM7 Bm7b5 E7 
E--7---5--|---------|------5--3-3--|--0----0------0--|
B--5---5--|--0------|---------0----|--0----3----4----|
G--5---5--|--2---2--|--2-5----0----|--0----2----1----|
D------3--|--4---2--|--3------3----|--2----3----0----|
A--0---0--|--0---0--|--5------2----|--3----2----2----|
E---------|---------|---------3----|------------0----|
 25.       26.       27.            28.

  Em7b9 A7b9  D9         G#7   G7       C  (Bm7b5 E7)
E-5-6-5-6-5-|-0------0-|-------------|-----|--------||
B-3-----5---|-3-3--3---|-4-----3-1-1-|--1--|--3--0--||
G-3-----6---|-5--5-5---|-5-7-5-0--2--|--0--|--2--1--||
D-2-----5---|-4----4---|-4-----3-----|--2--|--3--0--||
A-------0---|-5----5---|-6-----2-----|--3--|--2--2--||
E-----------|----------|-4-----3-----|-----|-----0--||
 29.         30.        31.           32.   33.   

Here is another approach to the A section using the (Old) Real Book III chord progression. Instead of the Am#5 in the first bar an F/A is used. Also, in bar 6, an Am7 chord is inserted in front of the D7.

  Am F/A    Am6 Am7   Dm7    G7     CM7   Bm7 E7 
E-7---5-----|-------|------5--3-3--|--0----0------0--|
B-5---6-5---|-0-----|---------0----|--0----3----4----|
G-5---5---5-|-2---2-|--2-5----0----|--0----2----1----|
D-----7-----|-4---2-|--3------3----|--2----0----0----|
A-0---0-----|-0---0-|--5------2----|--3----2----2----|
E-----------|-------|---------3----|------------0----|
 1.          2.      3.             4.

  Em7   A7b9   Am7    D9     G#9   G7sus4  C6/9 E+7
E-5-6-5-6-5--|-0--------0-|---------------|---------||
B-3-----5----|-1-3-1--3---|--4-----3-1-1--|--1---1--||
G-4-----6----|-0------5---|--5-7-5-0--2---|--2---1--||
D-5-----5----|-2------4---|--4-----3------|--0---2--||
A-------0----|-0------5---|--6-----2------|--3---3--||
E-0----------|------------|--4-----3------|------0--||
 5.           6.           7.              8.

About Us | Chord Progressions | F.A.Q. | Freebies | Guitar Chords | Guitar Lessons | Home Page | Links | Music News | Site Search | Songwriting | Standards | Store | Tablature | WebRings Copyright © 2006 MoneyChords.com