MoneyChords
Resources

Lead Sheet with Tab

Lyrics

Song Analysis

Vanilla Book

MoneyChords
Store

Blue Skies

Here are the fingerings that I use to play a chord-melody arrangement of Irving Berlin's 1927 standard Blue Skies. I play it in the key of Am/C not the original key of Dm/F. This song is played in a moderate 4/4 time. I used the chord progression from the "[HL] Real Book Vol. 2" to create this chord-melody arrangement.

A

    Am          E7/G#          C/G       F#m7b5 
E-------0---|---0----------|----0----|---0-----------|
B-------1---|---3--3---3---|----1----|---1--3-1-3----|
G---2---2---|---4----5-----|----0----|---2-----------|
D---2---2---|---0----------|----2----|---2-----------|
A---0---0---|--------------|---------|---------------|
E-----------|---4----------|----3----|---2-----------|
 1.          2.             3.        4. 

   CM7 A7b5    Dm7  G7           C6      Bm7b5 E7b9
E---0-------|--------------|-----------|------------||
B---0-------|--------------|-----1-----|---3---3----||
G---0---0---|---0---0--2---|-----2-----|---2---1----||
D---2---1---|---3---3------|-----2-----|---3---3----||
A---3---0---|---5---2------|-----3-----|---2---2----||
E-----------|-------3------|-----------|-------0----||
 5.          6.             7.          8.

A

    Am          E7/G#          C/G       F#m7b5 
E-------0---|---0----------|----0----|---0-----------|
B-------1---|---3--3---3---|----1----|---1--3-1-3----|
G---2---2---|---4----5-----|----0----|---2-----------|
D---2---2---|---0----------|----2----|---2-----------|
A---0---0---|--------------|---------|---------------|
E-----------|---4----------|----3----|---2-----------|
 9.          10.            11.       12. 

   CM7 A7b5    Dm7  G7           C6       Dm7  G7
E---0-------|--------------|-----------|---1--------||
B---0-------|--------------|-----1-----|---1---0----||
G---0---0---|---0---0--2---|-----2-----|---2---0----||
D---2---1---|---3---3------|-----2-----|---0---3----||
A---3---0---|---5---2------|-----3-----|-------2----||
E-----------|-------3------|-----------|-------3----||
 13.         14.            15.         16.

B

   CM7            Bb7    CM7    Bb7  CM7    G7   CM7 
E------0-1--3--|--4--3-1--3--|--1-0---0--|-----------|
B--1-3------0--|--3-------0--|--3---3-0--|--3-1-0-1--|
G--0--------0--|--3-------0--|--1-----0--|--0-----0--|
D--2--------2--|--3-------2--|--3-----2--|--3-----2--|
A--3--------3--|--1-------3--|--1-----3--|--2-----3--|
E--------------|-------------|-----------|--3--------|
 17.            18.           19.         20.

   CM7           Bb7  CM7    Bb7  CM7    G7  CM7 E7#5 
E------0-1-3--|--4-3-1-3--|--1-0---0--|-------------||
B--1-3-----0--|--3-----0--|--3---3-0--|--3-1-0-1-1--||
G--0-------0--|--3-----0--|--1-----0--|--0-----0-1--||
D--2-------2--|--3-----2--|--3-----2--|--3-----2-0--||
A--3-------3--|--1-----3--|--1-----3--|--2-----3-2--||
E-------------|-----------|-----------|--3-------0--||
 21.           22.         23.         24.

A

    Am          E7/G#          C/G       F#m7b5 
E-------0---|---0----------|----0----|---0-----------|
B-------1---|---3--3---3---|----1----|---1--3-1-3----|
G---2---2---|---4----5-----|----0----|---2-----------|
D---2---2---|---0----------|----2----|---2-----------|
A---0---0---|--------------|---------|---------------|
E-----------|---4----------|----3----|---2-----------|
 25.         26.            27.       28. 

   CM7 A7b5    Dm7  G7           C6     (Bm7b5 E7b9)
E---0-------|--------------|-----------|------------||
B---0-------|--------------|-----1-----|------------||
G---0---0---|---0---0--2---|-----2-----|------------||
D---2---1---|---3---3------|-----2-----|------------||
A---3---0---|---5---2------|-----3-----|------------||
E-----------|-------3------|-----------|------------||
 29.         30.            31.         32.
Alternate Fingerings

(1) Bars 2 through 4 (Descending Minor Cliche):

    Am          Am(M7)          Am7      Am6 
E-------0---|---0----------|----0----|---0-----------|
B-------1---|---1--3-1-3---|----1----|---1--3-1-3----|
G---2---2---|---1----------|----0----|---2-----------|
D---2---2---|---2----------|----2----|---4-----------|
A---0---0---|---0----------|----0----|---0-----------|
E-----------|--------------|---------|---------------|
 1.          2.             3.        4. 
(2) Bars 2 through 4:

    Am          Am(M7)          Am7      D7 Bb7
E-------0---|---0----------|----0----|---0-----------|
B-------1---|---1--3-1-3---|----1----|---1--3-1-3----|
G---2---2---|---1----------|----0----|---2--1--------|
D---2---2---|---2----------|----2----|---0--3--------|
A---0---0---|---0----------|----0----|------1--------|
E-----------|--------------|---------|---------------|
 1.          2.             3.        4. 
(3) Bars 5 through 8:

  CM7 A7b5     Eb7  G7         C6 FM7     Bm7 E7#5
E---0-------|--------------|-----------|------------||
B---0-------|--------------|---1---1---|---3---1----||
G---0---0---|---0---0--2---|---2---2---|---2---1----||
D---2---1---|---1---3------|---2---2---|---4---0----||
A---3---0---|---1---2------|---3-------|---2---2----||
E-----------|-------3------|-------1---|-------0----||
 5.          6.             7.          8.
(4) Bars 17 through 20:

   C             Bb9      C    Bb9    C    Bb9    C 
E------0-1--3--|--4--3-1--3--|--1-0---0--|-----------|
B--1-3------1--|--1-------1--|--1---3-1--|--3-1-0-1--|
G--0--------0--|--1-------0--|--1-----0--|--1-----0--|
D--2--------2--|--0-------2--|--0-----2--|--0-----2--|
A--3--------3--|----------3--|--------3--|--------3--|
E--------------|-------------|-----------|-----------|
 17.            18.           19.         20.

About Us | Chord Progressions | F.A.Q. | Freebies | Guitar Chords | Guitar Lessons | Home Page | Links | Music News | Site Search | Songwriting | Standards | Store | Tablature | WebRings Copyright © 2007 MoneyChords.com