MoneyChords
Resources

Lyrics

Tab

MoneyChords
Store

Beyond The Sea

Here are the fingerings that I use to play a chord-melody arrangement of Charles Trenet's 1945 standard Beyond The Sea. I play it in the key of C not the original key of F. The song is played in a medium 4/4 tempo. I used the chord progression from the "(Hal Leonard) Real Book II."

            C6 Am7  Dm7 G7       CM7 Am7  Dm7 G7
E-------||--------|------------|--0-----|------------|
B-------||--1--1--|--1--0-1-3--|--0--1--|--3--0------|
G---0---||--2--0--|--2--0------|--0--0--|--2--0-2-0--|
D-------||--2--2--|--0--3------|--2--2--|--3--3------|
A-------||--3--0--|-----2------|--3--0--|--0--2------|
E-------||--------|-----3------|--------|-----3------|
          1.       2.           3.       4.

   CM7 E7     Am7 G7          CM7  Am7      FM7  A7
E---0--0---|---0----0-1---|---3----------|---5---5---|
B---0--0---|---1--3-------|---0-1--1-1---|---5---5---|
G---0--1---|---0--0-------|---0----0-----|---5---6---|
D---2--0---|---2--3-------|---2----2-----|---3---5---|
A---3--2---|---0--2-------|---3----0-----|-------0---|
E------0---|------3-------|--------------|-----------|
 5.         6.             7.             8.
                               _____________________ 
   Dm7  G7         Am7  FM7   |1.  D7      Dm7  G7  |
E---5---3-0-----|-------------|---------|-----------||
B---6---0---3---|---1-----1---|----3----|-----------||
G---5---0-------|---0---2-----|----5----|---0---0---||
D---0---3-------|---2---2-----|----4----|---3---3---||
A-------2-------|---0---------|----5----|---5---2---||
E-------3-------|-------1-----|---------|-------3---||
 9.              10.           11.       12. 
 _______________________
|2. Dm7 G7      C6  B7       E6 Cm7     F#m7 B7
E-----------|-----------||---0-------|-----------2---|
B---3---3---|---1---0---||---2---5---|---5---4-5-----|
G---2---0---|---2---2---||---1---4---|---2---2-------|
D---3---3---|---2---1---||-------6---|---2---4-------|
A---0---2---|---3---2---||---2---4---|---4---2-------|
E-------3---|-----------||---0-------|---2-----------|
 23.         24.          25.         26.

 EM7 C#m7  F#m7 B7        EM7     Am7 D7     G6 Em7 
E--4-----|--2----------|-------|----------|---3--3---|
B--4--5--|--2---4-2----|---0---|---1--3---|---5--0---|
G--4--4--|--2---2---4--|---1---|---0--5---|---4--0---|
D--2--2--|--2---4------|---1---|---2--4---|------0---|
A-----4--|--4---2------|---2---|---0--5---|---5--2---|
E--------|--2----------|---0---|----------|---3--0---|
 27.      28.           29.     30.        31.

  Am7 D7         GM7 Em7    Am7   D7         Em7 A7
E--3--2-3-5---|---7--3---|---5----2-0-----|---3--3---|
B--1--1---4---|---7--0---|---5-7--1---3---|---0--2---|
G--0--2---5---|---7--0---|---5----2-------|---0--0---|
D--2--0---0---|---5--0---|---5----0-------|---0--2---|
A--0----------|------2---|---0------------|---2--0---|
E-------------|------0---|----------------|---0------|
 32.           33.        34.              35.

  Dm7 G7     C6 Am7  Dm7 G7       CM7 Am7  Dm7 G7
E--------||--------|------------|--0-----|-----------|
B--1-----||--1--1--|--1--0-1-3--|--0--1--|--3--0-----|
G--2--0--||--2--0--|--2--0------|--0--0--|--2--0-2-0-|
D--0--3--||--2--2--|--0--3------|--2--2--|--3--3-----|
A-----2--||--3--0--|-----2------|--3--0--|--0--2-----|
E-----3--||--------|-----3------|--------|-----3-----|
 36.       37.      38.          39.      40.

   CM7 E7     Am7 G7          CM7  Am7      FM7  A7
E---0--0---|---0----0-1---|---3----------|---5---5---|
B---0--0---|---1--3-------|---0-1--1-1---|---5---5---|
G---0--1---|---0--0-------|---0----0-----|---5---6---|
D---2--0---|---2--3-------|---2----2-----|---3---5---|
A---3--2---|---0--2-------|---3----0-----|-------0---|
E------0---|------3-------|--------------|-----------|
 41.        42.            43.            44.
                                
   Dm7  G7         Am7  FM7      Dm7 G7        C6
E---5---3-0-----|-------------|-----------|---------||
B---6---0---3---|---1-----1---|---3---3---|----1----||
G---5---0-------|---0---2-----|---2---0---|----2----||
D---0---3-------|---2---2-----|---3---3---|----2----||
A-------2-------|---0---------|---0---2---|----3----||
E-------3-------|-------1-----|-------3---|---------||
 45.             46.           47.         48. 
In the second chord-melody arrangement I used the chord progression from "The Ultimate Pop/Rock Fake Book." This progression is similar to the one used on Bobby Darin's 1960 #6 hit cover of this standard. It essentially replaces the "Cmaj7-Am7-Dm7-G7" Standard Progression with the "C-Am-F-G7" Doo-Wop Progression.

            C  Am    F  G         C  Am    F  G
E-------||--------|------------|--0-----|------------|
B-------||--1--1--|--1--0-1-3--|--1--1--|--3--0------|
G---0---||--0--2--|--2--0------|--0--2--|--2--0-2-0--|
D-------||--2--2--|--3--0------|--2--2--|-----0------|
A-------||--3--0--|--3--2------|--3--0--|--3--2------|
E-------||--------|--1--3------|--------|--1--3------|
          1.       2.           3.       4.

    C  E7      Am G7          C    Am        F   A7
E---0--0---|---0----0-1---|---3----------|---5---5---|
B---1--0---|---1--3-------|---1-1--1-1---|-------5---|
G---0--1---|---2--0-------|---0----2-----|---5---6---|
D---2--0---|---2--3-------|---2----2-----|---3---5---|
A---3--2---|---0--2-------|---3----0-----|-------0---|
E------0---|------3-------|--------------|-----------|
 5.         6.             7.             8.
                               _____________________ 
    Dm  G           Am  F     |1.  D7       G   G7  |
E---5---3-0-----|-------------|---------|-----------||
B---6---0---3---|---1-----1---|----3----|-----------||
G---7---0-------|---2---2-----|----5----|---0---0---||
D---7---0-------|---2---3-----|----4----|---0---3---||
A---5---2-------|---0---3-----|----5----|---2---2---||
E-------3-------|-------1-----|---------|---3---3---||
 9.              10.           11.       12. 
 _______________________
|2. Dm7 G7      C   B7       E  C#m7     A   B7
E-----------|-----------||---0-------|---0-------2---|
B---3---3---|---1---0---||---0---5---|---2---4-5-----|
G---2---0---|---0---2---||---1---4---|---2---2-------|
D---3---3---|---2---1---||---2---2---|---2---4-------|
A---0---2---|---3---2---||---2---4---|---0---2-------|
E-------3---|-----------||---0-------|---------------|
 23.         24.          25.         26.

   E C#m7   F#m B7         E        D7       G   Em 
E--4-----|--2----------|-------|---------|---3---3---|
B--0--5--|--2---4-2----|---0---|----3----|---0---0---|
G--1--4--|--2---2---4--|---1---|----5----|---0---0---|
D-----2--|--4---4------|---2---|----4----|---0-------|
A--2--4--|--4---2------|---2---|----5----|---2---2---|
E--0-----|--2----------|---0---|---------|---3---0---|
 27.      28.           29.     30.        31.

   C  D7          G  Em      C    D7          G  G7
E--3--2-3-5---|---7--3---|---5-2--2-0-----|---3--3---|
B--1--1---4---|------0---|---5----1---3---|---0--0---|
G--0--2---5---|---7--0---|---5----2-------|---0--0---|
D--2--0---0---|---5------|---5----0-------|---0--3---|
A--3----------|------2---|---3------------|---2--2---|
E-------------|------0---|----------------|---3--3---|
 32.           33.        34.              35.

  Dm7 G7     C  Am    F  G7        C  Am    F  G7
E--------||--------|------------|--0-----|-----------|
B--1-----||--1--1--|--1--0-1-3--|--1--1--|--3--0-----|
G--2--0--||--0--2--|--2--0------|--0--2--|--2--0-2-0-|
D--0--3--||--2--2--|--3--3------|--2--2--|-----3-----|
A-----2--||--3--0--|--3--2------|--3--0--|--3--2-----|
E-----3--||--------|--1--3------|--------|--1--3-----|
 36.       37.      38.          39.      40.

    C  E7      Am G7          C    Am        F   A7
E---0--0---|---0----0-1---|---3----------|---5---5---|
B---1--0---|---1--3-------|---1-1--1-1---|-------5---|
G---0--1---|---2--0-------|---0----2-----|---5---6---|
D---2--0---|---2--3-------|---2----2-----|---3---5---|
A---3--2---|---0--2-------|---3----0-----|-------0---|
E------0---|------3-------|--------------|-----------|
 41.        42.            43.            44.
                                
    Dm  G7          Am  F         D7 G7        C
E---5---3-0-----|-------------|-----------|---------||
B---6---0---3---|---1-----1---|---3---3---|----1----||
G---7---0-------|---2---2-----|---5---0---|----0----||
D---7---3-------|---2---3-----|---4---3---|----2----||
A---5---2-------|---0---3-----|---5---2---|----3----||
E-------3-------|-------1-----|-------3---|---------||
 45.             46.           47.         48. 

About Us | Chord Progressions | F.A.Q. | Freebies | Guitar Chords | Guitar Lessons | Home Page | Links | Music News | Site Search | Songwriting | Standards | Store | Tablature | WebRings Copyright © 2006 MoneyChords.com