MoneyChords
Resources

Band-In-A-Box

BIAB Midi

Lyrics

Vanilla Changes

MoneyChords
Store

Bewitched

Here are the fingerings that I use to play a chord-melody arrangement of Richard Rodgers and Lorenz Hart's 1941 standard Bewitched from the Broadway musical "Pal Joey." I play it in the key of G not the original key of C. The song is a ballad played in 4/4 time.

The "GM7-Am7" Vanilla Changes for bars 1 and 2 offer many opportunities for chord substitution. Below are several common examples. You should try using these substitutions in your chord-melody arrangements when you encounter this chord sequence.

|GM7 /    / / |Am7 /    / / | Vanilla Changes
|GM7 /    / / |D7 /     / / | Folk Progression
|GM7 /    / / |Am7 / D7   / | Jazz Progression
|GM7 / Em7  / |Am7 / D7   / | Standard Changes
|GM7 / G#o7 / |Am7 / A#o7 / | Ascending Chromatic Bass Line
 1.            2.
There are also several common encountered changes for Bars 17. through 20. These are shown below.

|Am  /       / / |     / /    / / |Em         / / |    / /   / / |
|Am  / Am(M7)7 / |Am7    / Am6  / |Em  / Em(M7) / |Em7   / Em6 / |
|Am7 /       / / |F#m7b5 / B7b9 / |Em7 /      / / |Bm7b5 / E7  / |
|Am7 / E7#5    / |Am7    / B7b9 / |Em7 / Em#5   / |Em6   / Em7 / | 
 17.              18.              19.             20.

A

 D7     GM7   G#o7  Am7  A#o7  G/B   B7      CM7  C#o
E---||----2-3----|----2-3---|----2-3---2-3-|-0-2-3-2-|
B-3-||----3------|--1-----2-|--3-----4-----|-0-----2-|
G-5-||--4-4---4--|--0-----0-|--0-----2-----|-0-----3-|
D-4-||--4-4---3--|--2-----2-|--0-----4-----|-2-----2-|
A-5-||-----------|--0-----1-|--2-----2-----|-3-----4-|
E---||--3-----4--|----------|--------------|---------|
      1.          2.         3.             4.
                              
   G/D Bbo        Am7 D7 E7b9     Am7       D7  
E--3---2-0------|------------|----------|-----------||
B--3---2---3-2--|--3------0--|----1-----|---1---3---||
G--4---0--------|--0---2--1--|----0-----|---2---5---||
D--5---2--------|--2---4--3--|----2-----|---0---4---||
A--5---1--------|--0---5--2--|----0-----|-------5---||
E---------------|---------0--|----------|-----------||
 5.              6.           7.         8.

A

   GM7   G#o7  Am7    A#o7  G/B   B7        CM7   C#o
E----2-3----|----2-3-----|----2-3---2-3--|--0-2-3-2--|
B----3------|--1------2--|--3-----4------|--0-----2--|
G--4-4---4--|--0------0--|--0-----2------|--0-----3--|
D--4-4---3--|--2------2--|--0-----4------|--2-----2--|
A-----------|--0------1--|--2-----2------|--3-----4--|
E--3-----4--|------------|---------------|-----------|
 9.          10.          11.             12.

   G/D Bbo         Am7 Dm7 G7     CM7     Bm7b5 E7b9
E--3--2-0------|-------------|----0-----|------0---||
B-3---2---3-2--|--3----------|----0-----|---5--0---||
G--4--0--------|--0---2---4--|----0-----|---2--1---||
D-5--2--------|--2---4---3--|----2-----|---3--3---||
A-5--1--------|--0---5---5--|----3-----|---2--2---||
E---------------|----------3--|----------|------0---||
 13.             14.           15.        16.

B

   Am     Am(M7) Am7 Am6    Em     Em(M7)   Em7 Em6
E--2-0----2-0--|---------|--2-0-----2-0--|-----------|
B--1---1--1----|--1---1--|--0---0---0----|---0---0---|
G---------1----|--0---2--|--0-------0----|---0---0---|
D--2------2----|--2---4--|----------1----|---0---2---|
A--0------0----|--0---0--|--2-------2----|---2---4---|
E--------------|---------|--0-------0----|---0---0---|
 17.            18.       19.             20.
 
   Am7    D11    Am11 D7          Bm7 Bbo7   Am7 D7 
E--3-2----3-2--|--------0-2-3--|--5---3---|---------||
B--1---3--1----|--3---3--------|--3---2---|--1---3--||
G--0------2----|--0---5--------|--x---0---|--0---5--||
D--2------0----|--2---4--------|--4---2---|--2---4--||
A--0-----------|--0---5--------|--2---1---|--0---5--||
E--------------|---------------|----------|---------||
 21.            22.             23.        24.

A

   GM7   G#o7  Am7    A#o7  G/B   B7        CM7   C#o
E----2-3----|----2-3-----|----2-3---2-3--|--0-2-3-2--|
B----3------|--1------2--|--3-----4------|--0-----2--|
G--4-4---4--|--0------0--|--0-----2------|--0-----3--|
D--4-4---3--|--2------2--|--0-----4------|--2-----2--|
A-----------|--0------1--|--2-----2------|--3-----4--|
E--3-----4--|------------|---------------|-----------|
 25.         26.          27.             28.
                
   G/D Bbo       Am11 Am7 Ab7b5   G6 (Em7   Am7  D7)
E--3-----------|------5------|----3-----|----------||
B-3---7-5------|--3---5---3--|----5-----|----------||
G--4--6---7-6--|--5---5---5--|----4-----|----------||
D-5--5--------|--5---5---4--|----------|----------||
A-5-----------|-------------|----5-----|----------||
E------6--------|--5---5---4--|----3-----|----------||
 29.             30.           31.        32. 

About Us | Chord Progressions | F.A.Q. | Freebies | Guitar Chords | Guitar Lessons | Home Page | Links | Music News | Site Search | Songwriting | Standards | Store | Tablature | WebRings Copyright © 2007 - 2009 MoneyChords.com