Away In A Manger

MoneyChords
Resources

Sheet Music

Wikipedia

MoneyChords
Store

O Little Town Of Bethlehem

Here are the fingerings that I use to play a chord-melody arrangement of Phillips Brooks and Lewis H. Redner's 1868 Christmas song O Little Town Of Bethlehem. I play it in the key of C not the usual key of F. The song is a 4/4 ballad.

A

     CM7 C6 CoCM7 C#oDm7D/F#AboC/GAm9Am7Dm7G7 CM7 Abo 
E-0-|-0--0-----0-|-3--1-------|--------------|-0----| 
B---|-0--1--4--0-|-2--1-----3-|-1--0--1--3---|-0-5-| 
G---|-0--2--2--0-|-3--2--2--4-|-0-0--0--2--0|-0--4-| 
D---|-2--2--4--2-|-2--0--0--3-|-2-2--2--3--3|-2--3-| 
A---|-3--3--3--3-|------------|----0--0-----2|-3----| 
E---|------------|-------2--4-|-3-----------3|----4-| 
     1.           2.           3.             4.
 
CM7Bb9#11A7Ab7b9Dm11D/F#AboC/GAm9Am7Dm7 G7   C6	
E-0--0--5--3-|-3--1-------|---------------|-----0--|| 
B-0--1--5--2-|-1--1-----3-|-1--0--1--3----|--1-1--|| 
G-0--1--6--3-|-2--2--2--4-|-0--0--0--2--0-|--2--2--|| 
D-2--0--5--2-|-0--0--0--3-|-2--2--2--3--3-|--2-2--|| 
A-3--1--7--0-|------------|----0--0-----2-|--3--3--|| 
E-------5----|-------2--4-|-3-----------3-|--------||
 5.           6.           7.              8.
       
B

Am7F#m7b5Bm7b5F7Bm7 E7      Am Bm7 C/G F13  E7susE7
E--0--0--------|-----------|--------------|--0---0--| 
B--1--1--3--1--|--0--0--0--|-----0--1--3--|--0---0--| 
G--0--2--2--2--|--2--1-----|--2--2--0--2--|--2---1--| 
D--2--2--3--1--|--0--0-----|--2--0--2--1--|--0---0--| 
A--0-----2--3--|--2--2-----|--0--2--------|--2---2--| 
E-----2-----1--|-----0-----|--------3--1--|--0---0--| 
 9.             10.         11.            12.
   CM7  BM7 CM7 Am7 Dm7D/F#G13CM7Am7Ab7#5G7   C6
E--0--0-----0--|--3--1-----5-|--3----------|-------|| 
B--0--0--4--0--|--1--1-----5-|--0-----5--3-|---1---|| 
G--0--2--3--0--|--0--2--2--4-|--0--5--5--4-|---2---|| 
D--2--2--4--2--|--2--0--0--3-|--2--5--4--3-|---2---|| 
A--3--3--2--3--|--0----------|--3--------5-|---3---|| 
E--------------|--------2--3-|-----5--4--3-|-------|| 
 13.            14.           15.           16.

About Us | Chord Progressions | F.A.Q. | Freebies | Guitar Chords | Guitar Lessons | Home Page | Links | Music News | Site Search | Songwriting | Standards | Store | Tablature | WebRings Copyright © 2009 MoneyChords.com