Away In A Manger

MoneyChords
Resources

Lead Sheet

Wikipedia

MoneyChords
Store

Away In A Manger

Here are the fingerings that I use to play a chord-melody arrangement of James R. Murray and John F. McFarland's 1887 Christmas song Away In A Manger. I play it in the key of C not the usual key of F. The song is played moderatly in 3/4 waltz time.

   G7#5   CM7Bm7b5Am7 Gm6Gm7Gb7b5 FM7F7b5F#o   C/G A7 
E--3--||--3--1--0--|-----------|-----------|---------|
B--4--||--0--3--1--|--5--3--1--|--1--0-----|---------|
G--4--||--0--2--0--|--3--3--3--|--2--2--2--|--0---0--|
D--3--||--2-----2--|--3--3--2--|--2--1--1--|--2---2--|
A-----||--3--2--0--|-----------|-----------|--3---0--|
E-----||-----------|--3--3--2--|--1--1--2--|--3------|
        1.          2.          3.          4.

   Dm7           G7            C6 C  C6      C  G7#5
E------------|-------------|-------------|---0---3---|
B------------|------3--0---|---------1---|---1---4---|
G--0--2--0---|---0-----0---|---2--0--2---|---0---4---|
D--3-----3---|---3-----3---|---2--2--2---|---2---3---|
A--5-----5---|---2-----2---|---3--3--3---|---3-------|
E------------|---3-----3---|-------------|-----------|
 5.           6.            7.            8. 

  CM7 Dm7 Am7    C7 Gm7Gb7b5   FM7F7b5F#o   C/G C#o 
E---3--1--0---|---0---------|-------------|----------|
B---0--1--1---|---1--3--1---|---1--0------|----------|
G---0--2--0---|---3--3--3---|---2--2--2---|--0---0---|
D---2--0--2---|---2--3--2---|---2--1--1---|--2---2---|
A---3-----0---|---3---------|-------------|--3---4---|
E-------------|------3--2---|---1--1--2---|--3-------|
 9.            10.           11.           12.

  Dm7 G13 G7    CM7 Am11Am7    Dm  G9 G7     C6 (G7#5)
E-------------|---0---------|-------------|---------||
B---6--5--3---|---0--3--1---|---3---------|---1-----||
G---5--4--4---|---0--0--0---|---2--2--4---|---2-----||
D---3--3--3---|---2--2--2---|---3--3--3---|---2-----||
A---5-----5---|---3--0--0---|---------5---|---3-----||
E------3--3---|-------------|------3--3---|---------||
 13.           14.           15.           16.

About Us | Chord Progressions | F.A.Q. | Freebies | Guitar Chords | Guitar Lessons | Home Page | Links | Music News | Site Search | Songwriting | Standards | Store | Tablature | WebRings Copyright © 2007 - 2009 MoneyChords.com