MoneyChords
Resources

Lyrics

Notes On...Series

MoneyChords
Store

A Taste Of Honey

Here are the fingerings that I use to play a chord-melody arrangement of Bobby Scott and Ric Marlow's 1960 standard A Taste Of Honey. I play it in the key of Am not the original key of Dm. The song is played in a medium 3/4 time. I used the chord progression from the "[HL] Real Book Vol. III."

    Am         Am(M7)         Am7         D7
E------0---|---0--0--2----|---3--5----|---2-----0----|
B----------|---1----------|---1-------|---1--3-------|
G---2------|---1----------|---0-------|---2----------|
D---2------|---2----------|---2-------|---0----------|
A---0------|---0----------|---0-------|--------------|
E----------|--------------|-----------|--------------|
 1.         2.             3.          4.

    Am         Am(M7)        Am7        D7
E------0---|---0--0--2---|---3--5---|---2-----0--3---|
B----------|---1---------|---1------|---1--3---------|
G---2------|---1---------|---0------|---2------------|
D---2------|---2---------|---2------|---0------------|
A---0------|---0---------|---0------|----------------|
E----------|-------------|----------|----------------|
 5.         6.            7.         8.

    Am                       FM7          Em7
E---5--5----|-----3-----|----0-------|---------------|
B---5-------|-----1-----|----1--1----|----3--0-------|
G---5-------|-----2-----|----2-------|----0-----0----|
D---2-------|-----2-----|----2-------|----0----------|
A---0-------|-----0-----|------------|----2----------|
E-----------|-----------|----1-------|----0----------|
 9.          10.         11.          12.

     Am                      Am7             D7 
E---------|-------------|----3--5--3----|----2-------|
B---------|-------------|----1----------|----1--3----|
G----2----|-----(2)-----|----0----------|----2-------|
D----2----|-----(2)-----|----2----------|----0-------|
A----0----|-----(0)-----|----0----------|------------|
E---------|-------------|---------------|------------|
 13.       14.           15.             16. 

    Am7        D7            FM7           Em7
E---0--0---|-------------|-------------|-------------|
B---1------|---3--3--3---|---1--3--1---|---0---------|
G---0------|---5---------|---2---------|---0--0--0---|
D---2------|---4---------|---2---------|---0---------|
A---0------|---5---------|-------------|---2---------|
E----------|-------------|---1---------|---0---------|
 17.        18.           19.           20.

 _______________________  ___________________________
|1. Am       Bm7b5 E7   ||2.   Am          D7
E---------|--------0----||-----------|---------------|
B---------|--------0----||-----------|-----3---3-----|
G----2----|----2---1----||-----2-----|-----5---------|
D----2----|----3---0----||-----2-----|-----4---------|
A----0----|----2---2----||-----0-----|-----5---------|
E---------|--------0----||-----------|---------------|
 21.       22.            23.         24.

    FM7           Em7            Am     Bm7b5 E7b9
E-------------|-------------|---------|-------1------|
B---1--3--1---|---0---------|---------|-------0--3---|
G---2---------|---0--0--0---|----2----|----2--1------|
D---2---------|---0---------|----2----|----3--0------|
A-------------|---2---------|----0----|----2--2------|
E---1---------|---0---------|---------|-------0------|
 25.           26.           27.       28.

    Am            E7#5  E7b9         Am   (Bm7b5 E7)
E---0--0--0---|---8--8--7--8--7--|---5---|----------||
B---1---------|---5-----6--------|---5---|----------||
G---2---------|---7-----7--------|---5---|----------||
D---2---------|---6-----6--------|---7---|----------||
A---0---------|------------------|---7---|----------||
E-------------|------------------|---5---|----------||
 29.           30.                31.     32.
Alternate Fingerings

(1) Bars 1 through 4: 

   Am          E7             Am7         D7
E------0---|---0--0--2----|---3--5----|---2-----0----|
B----------|---0----------|---1-------|---1--3-------|
G---2------|---1----------|---0-------|---2----------|
D---2------|---0----------|---2-------|---0----------|
A---0------|---2----------|---0-------|--------------|
E----------|---0----------|-----------|--------------|
 1.         2.             3.          4.

About Us | Chord Progressions | F.A.Q. | Freebies | Guitar Chords | Guitar Lessons | Home Page | Links | Music News | Site Search | Songwriting | Standards | Store | Tablature | WebRings Copyright © 2008 MoneyChords.com