MoneyChords
Resources

Lead Sheet

Lesson (Guitar Noise)

Sheet Music (pdf)

Wikipedia

MoneyChords
Store

Angels We Have Heard On High

Here are the fingerings that I use to play a chord-melody arrangement of the traditional French carol Angels We Have Heard On High. I play it in the key of C not the usual key of G. The song is played moderately in 4/4 time.

A

 CM7Bb7b5Em7Am7 Dm11 Bo CM7  Bm7b5Em7A7b9  Dm9 G7 C6
E--0--0--0--3--|--3--1--0--|--0-----0-3--|--0--------|
B--0--3--0--1--|--1--0--0--|--3--3--2-2--|--1--3--1--|
G--0--1--0--0--|--2--1--0--|--2--0--3-3--|--2--4--2--|
D--2--3--0--2--|--0--0--2--|--3--0--2-2--|--0--3--2--|
A--3--1--2--0--|--------3--|--2--2--0-0--|-----5--3--|
E--------0-----|-----------|-----0-------|-----3-----|
 1.             2.          3.             4.

 CM7Bm11Em7Am7 Dm11 Bo CM7 Bm7b5Em7A7b9   Dm9D7b9C6
E--0--0--0--3--|--3--1--0--|--0-----0-3--|--0-------||
B--0--3--0--1--|--1--0--0--|--3--3--2-2--|--1--3--1-||
G--0--2--0--0--|--2--1--0--|--2--0--3-3--|--2--4--2-||
D--2--0--0--2--|--0--0--2--|--3--0--2-2--|--0--3--2-||
A--3--2--2--0--|--------3--|--2--2--0-0--|-----4--3-||
E--------0-----|-----------|-----0-------|----------||
 5.             6.          7.            8.

B

   Em7 A7#5       Dm7 G7 G13G7  CM7 F6 F13F7  Dm7 G7
E--3---5-3-1-0-|--1---3-------|-0---1-0-----|--------|
B--0---6---2---|--1---3-6-5-3-|-0---3---3-1-|-3------|
G--0---6---0---|--2---4---4-4-|-0---2---2-2-|-5-0-0--|
D--0---5---2---|--0---3---3-3-|-2-------1-1-|-3-3-3--|
A--2---0---0---|------5-----5-|-3---3-----3-|-5-5-2--|
E--0-----------|------3---3-3-|-----1---1-1-|-----3--|
 9.             10.            11.          12.

  C6Bm7b5A7b9A7#5Dm9 G7    Em7 A7#5    Dm7 G7D7#9G13G7
E--------0--1--|--0-----|--3---5-3-1-0-|-1--3--------|
B--1--3--2--2--|--1--3--|--0---6---2---|-1--3--6-5-3-|
G--2--2--3--0--|--2--4--|--0---6---0---|-2--4--5-4-4-|
D--2--3--2--2--|--0--3--|--0---5---2---|-0--3--4-3-3-|
A--3--2--0--0--|-----5--|--2---0---0---|----5--5---5-|
E--------------|-----3--|--0-----------|----3----3-3-|
 13.            14.      15.            16.
  
   CM7 F6 F13F7    Dm7 G7  C6Bm7b5Bb9#11A7#5Dm9 D7b9     
E--0---1-0------|----------|--------0-1-|-----------|
B--0---3---3-1--|--3-------|-1--3--1-2-|---5--3---|
G--0---2---2-2--|--5----0--|-2--2---1-0-|---5---4---|
D--2-------1-1--|--3-5--3--|-2--3---0--2-|---3---3---|
A--3---3-----3--|--5----2--|-3--2---1--0-|---5---4---|
E------1---1-1--|-------3--|-------------|-----------|
 17.             18.        19.           20.     

            C6                    (  Dm7  G7  ) 
E--------------------------|------------------------||
B-----------1--------------|------------------------||
G-----------2--------------|------------------------||
D-----------2--------------|------------------------||
A-----------3--------------|------------------------||
E--------------------------|------------------------||
 21.                        22.
Alternate Fingerings

(1) Bars 1 through 4: 

   C      C/E    G     C       G/B C C/E   C/G G7 C
E--0-0--0--3--|--3--1--0--|--------0--3--|--0--------|
B--1----1--1--|--0-----1--|--1--3--1--1--|--1--3--1--|
G--0----0--0--|--0-----0--|--0--0--0--0--|--0--0--0--|
D--2----2--2--|--0-----2--|--2--0--2--2--|--2--3--2--|
A--3----3-----|--------3--|--3--2--3-----|-----2--3--|
E-------------|--3--------|--------------|--3--3-----|
 1.            2.          3.             4.

(2) Bars 5 through 8: 

   Am E7 Am G    C/E G7 C     C G/B C C/E  C/G G7 C
E--0--0--0--3--|--3--1-----|--0-----0-3--|--0-------||
B--1--3--1--0--|--1--0--1--|--1--3--1-1--|--1--3--1-||
G--2--4--2--0--|--0--0--0--|--0--0--0-0--|--0--0--0-||
D--2--0--2--0--|--2--0--2--|--2--0--2-2--|--2--3--2-||
A--0-----0-----|--------3--|--3--2--3----|-----2--3-||
E-----4-----3--|-----------|-------------|--3--3----||
 5.             6.          7.            8.

(3) Bars 9 through 12: (Descending Bass Line)

   C   A7         Dm  G7/B      Am  F        Gsus G
E--3---5-3-1-0-|--1---3-1-0---|-0---1-0-----|--------|
B--1---2-------|--3---0-----3-|-1---1---3-1-|-3------|
G--0---2-------|--2---0-------|-2---2-------|-0-0-0--|
D--2---2-------|--0---3-------|-2---3-------|-0---0--|
A--3-2-0-------|----3-2-------|-0---3-------|-3---2--|
E--------------|--------------|---3-1-------|-3---3--|
 9.             10.            11.          12.

(4) Bars 13 through 16: 

   C  G  C Dm/F  C/G G     C   A7        Dm  G7/B
E--------0--1--|--0-----|--3---5-3-1-0-|-1---3-1-0---|
B--1--3--1--3--|--1--3--|--1---2-------|-3---0-----3-|
G--0--0--0--2--|--0--0--|--0---2-------|-2---0-------|
D--2--0--2-----|--2--0--|--2---2-------|-0---3-------|
A--3--2--3--3--|-----2--|--3-2-0-------|---3-2-------|
E-----3-----1--|--3--3--|--------------|-------------|
 13.            14.      15.            16.

(5) Bars 17 through 21: 

   Am  F  D7/F#  Gsus G   C  G  C Dm/F C/G G7    C    
E--0---1-0------|-------|-------0--1-|--0-----|-----||
B--1---1---3-1--|-3-----|-1--3--1--3-|--1--3--|--1--||
G--2---2---2----|-0-0-0-|-0--0--0--2-|--0--0--|--0--||
D--2---3---0----|-0---0-|-2--0--2----|--2--3--|--2--||
A--0---3--------|-3---2-|-3--2--3--3-|-----2--|--3--||
E----3-1---2----|-3---3-|----3-----1-|--3--3--|-----||
 17.           18.       19.            20.      21.

About Us | Chord Progressions | F.A.Q. | Freebies | Guitar Chords | Guitar Lessons | Home Page | Links | Music News | Site Search | Songwriting | Standards | Store | Tablature | WebRings Copyright © 2007 - 2009 MoneyChords.com