MoneyChords
Resources

Tab & Lyrics

Chord Progression (pdf)

MoneyChords
Store

Sunny

Here are the fingerings that I use to play a chord-melody arrangement of Bobby Hebb's 1966 standard Sunny. I play it in the key of Em not the original key of Am. The song is played in a moderte 4/4 rock tempo. I used the chord progression from the "Just Standards Real Book."

    Em        G7             C7           F#m7b5 B7#9
E----------|--3--0--------|--------------|-----------|
B---0--0---|--0-----3--0--|--------------|---0---0---|
G---0------|--2-----2-----|--2--0--0--2--|---2---2---|
D---2------|--3-----3-----|--2-----2-----|---2---1---|
A---2------|--------------|--3-----3-----|-----------|
E---0------|--3-----3-----|--------------|---2---1---|
 1.         2.             3.             4.

   Em       G7               C7           F#m7b5 B7#9
E--------|-----3-0--------|--------------|-----------|
B--0--0--|--0-------3--0--|--------------|--0--0-----|
G--0-----|--2-------2-----|--2--0--0--2--|--2--2--2--|
D--2-----|--3-------3-----|--2-----2-----|--2--1-----|
A--2-----|----------0-----|--3-----3-----|-----------|
E--0-----|--3-------3-----|--------------|--2--1-----|
 5.       6.               7.             8.

  Em            Em/D  C#m7b5    CMaj7       F7#11 
E-------------|--------------|-----------|-----------|
B-0-----------|--------------|--0--------|--0-----0--|
G-0-0-2-0-2-0-|-4---2-0-0-2--|--0-2-0-2--|--2-2-0----|
D-2-----2-----|-5-5---2------|--2---2----|--1---1----|
A-2-----2-----|-5-----4------|--3---3----|--0---0----|
E-0-----0-----|--------------|-----------|--1---1----|
 9.            10.            11.         12.

    F#m7b5            B7              Em       B7#9  
E----------------|---------------|---------|---------|
B---0--0--0--0---|---------------|---------|----3----|
G---2-----2------|----2--2--2----|----0----|----2----|
D---2-----2------|----1--1-------|----2----|----1----|
A----------------|---------------|----2----|----2----|
E---2-----2------|----1--1-------|----0----|---------|
 13.              14.             15.       16. 

    Em         G7              C7         F#m7b5 B7#9
E----------|---3--0---------|------------|-----------|
B---0--0---|---0-----3--0---|------------|---0---0---|
G---0------|---2-----2------|--2--0--2---|---2---2---|
D---2------|---3-----3------|--2--2------|---2---1---|
A---2------|----------------|--3--3------|-----------|
E---0------|---3-----3------|------------|---2---1---|
 17.        18.            19.            20.

   Em        G7              C7           F#m7b5 B7#9
E--------|---3--0---------|--------------|-----------|
B--0--0--|---0-----3--0---|--------------|--0--0-----|
G--0-----|---2-----2------|--2--0--0--2--|--2--2--2--|
D--2-----|---3-----3------|--2-----2-----|--2--1-----|
A--2-----|----------------|--3-----3-----|-----------|
E--0-----|---3-----3------|--------------|--2--1-----|
 21.      22.              23.            24.

  Em              Em/D  C#m7b5  CMaj7       F7#11 
E---------------|------------|-----------|-----------|
B--0------------|------------|--0--------|--0--------|
G--0-0-2-0-2-0--|--4---2--0--|--0-2-0-2--|--2--2-0---|
D--2-----2------|--5-5----2--|--2---2----|--1----1---|
A--2-----2------|--5------4--|--3---3----|--0----0---|
E--0-----0------|------------|-----------|--1----1---|
 25.           26.            27.         28.
                                           _________
    F#m7b5            B7              Em  |1. B7#9  |  
E----------------|---------------|--------|---------||
B---0--0--0--0---|---------------|--------|----3----||
G---2-----2------|----2--2--2----|----0---|----2----||
D---2-----2------|----1--1-------|----2---|----1----||
A----------------|---------------|----2---|----2----||
E---2-----2------|----1--1-------|----0---|---------||
 29.              30.             31.       32. 

  ______________           (Repeat and Fade)
 |2. B7#9             Em       B7#9
E---------------||---------|---------------||
B---3-----------||---------|---3-----------||
G---2---0---2---||----0----|---2---0---2---||
D---1---1-------||----2----|---1---1-------||
A---2---2-------||----2----|---2---2-------||
E---------------||----0----|---------------||
 64.
Below is another way to play the Bars 9 and 10. Here the Em, Em/D, and C#m7b5 chords are replaced with a descending minor cliche (Em-Em(M7)-Em7-Em6) to provide more harmonic interest.

  Em    Em(M7)  Em7   Em6       CMaj7       F7#11 
E-------------|--------------|-----------|-----------|
B-0-----------|-0------------|--0--------|--0-----0--|
G-0-0-2-0-2-0-|-0-0-2-0-0-2--|--0-2-0-2--|--2-2-0----|
D-2-----1-----|-0-----2------|--2---2----|--1---1----|
A-2-----2-----|-2-----4------|--3---3----|--0---0----|
E-0-----0-----|-0-----0------|-----------|--1---1----|
 9.            10.            11.         12.

About Us | Chord Progressions | F.A.Q. | Freebies | Guitar Chords | Guitar Lessons | Home Page | Links | Music News | Site Search | Songwriting | Standards | Store | Tablature | WebRings Copyright © 2006 MoneyChords.com