MoneyChords
Resources

Lyrics

Fingerstyle

Vanilla Book

MoneyChords
Store

Someone To Watch Over Me

Here are the fingerings that I use to play a chord-melody arrangement of George Gershwin's 1926 standard Someone To Watch Over Me. I play it in the key of E not the original key of Eb. The song is played moderately in a 4/4 tempo. I used the chord progression from the "Just Standards Real Book."

A section:

   E       E13     A6    Ao7   E/G#  Go7   B7/F# Fo7
E------------0--|--2-2------|-----------|------------|
B--------0-2----|--2---5-4--|--5-5-4-2--|--4-4-2-0---|
G------1---1----|--2-----5--|--4-----3--|--2-----1---|
D--2-4----------|--2-----4--|--2-----2--|--1-----0---|
A--2-------2----|--0--------|-----------|------------|
E--0-------0----|--------5--|--4-----3--|--2-----1---|
 1.              2.          3.          4.

F#m7 C#7/G# A6  Bbm7b5 B7sus B7     E G#7#5  AM7 B7
E--------------|--0--------------|---------|--------||
B--2-----------|--2--------------|------5--|--5--0--||
G--2----4---2--|--1--------------|--1---5--|--6--2--||
D--2----3---4--|--2-----2-----4--|--2---4--|--6--1--||
A-----------0--|--1-----2--------|--2------|-----2--||
E--2----4------|-----------------|--0---4--|--5-----||
 5.             6.                7.        8.

   E       E13     A6    Ao7   E/G#  Go7   B7/F# Fo7
E------------0--|--2-2------|-----------|------------|
B--------0-2----|--2---5-4--|--5-5-4-2--|--4-4-2-0---|
G------1---1----|--2-----5--|--4-----3--|--2-----1---|
D--2-4----------|--2-----4--|--2-----2--|--1-----0---|
A--2-------2----|--0--------|-----------|------------|
E--0-------0----|--------5--|--4-----3--|--2-----1---|
 9.              10.         11.         12.

F#m7 C#7/G# A6  Bbm7b5 B7sus B7  E E7 A B9  E   E7
E--------------|--0-------------|---------|---------||
B--2-----------|--2-------------|---------|-------0-||
G--2----4---2--|--1-------------|---1-2-2-|-----1---||
D--2----3---4--|--2-----2----4--|-2-0-2-1-|-2-4-0---||
A-----------0--|--1-----2-------|-2-2-0-2-|-2---2---||
E--2----4------|----------------|-0-0-----|-0---0---||
 13.            14.              15.       16.

B Section:

    A                                      E/G#
E---------------|--2--------|--2--------|------------|
B---4--5--4--5--|--2--5--4--|--2--5--4--|--7--5------|
G---2-----2-----|--2--2-----|--2--2-----|--4--4--6---|
D---2-----2-----|--2--2-----|--2--2-----|--6--6------|
A---0-----0-----|--0--0-----|--0--0-----|------------|
E---------------|-----------|-----------|------------|
 17.             18.         19.         20.

    Eb7           Ab7           C#  C#7     F#9 B7
E-------------|-------------|-----------|-----------||
B---5--4------|---5--4------|-------2---|---4---0---||
G---6-----6---|---5--5--5---|---1---4---|---3---2---||
D---5---------|---4--4------|---3---3---|---2---1---||
A---6---------|------6------|---4---4---|-------2---||
E-------------|---4--4------|-----------|---2-------||
 21.           22.           23.         24.

C Section:

   E       E13     A6    Ao7   E/G#  Go7   B7/F# Fo7
E------------0--|--2-2------|-----------|------------|
B--------0-2----|--2---5-4--|--5-5-4-2--|--4-4-2-0---|
G------1---1----|--2-----5--|--4-----3--|--2-----1---|
D--2-4----------|--2-----4--|--2-----2--|--1-----0---|
A--2-------2----|--0--------|-----------|------------|
E--0-------0----|--------5--|--4-----3--|--2-----1---|
 25.             26.         27.         28.
                                 ___________________
                                |1.                 |
F#m7 C#7/G# A6  Bbm7b5 B7sus B7 E E7 A G#7#5 F#m9 B7#5
E--------------|--0-------------|---------|--4------||
B--2-----------|--2-------------|-------5-|--2----0-||
G--2----4---2--|--1-------------|---1-2-5-|--2----0-||
D--2----3---4--|--2-----2----4--|-2-0-2-4-|--2----1-||
A-----------0--|--1-----2-------|-2-2-0---|-------2-||
E--2----4------|----------------|-0-0---4-|--2------||
 29.            30.              31.       32.
 _____________________________
|2.                           |
    E   E7  A   Am       E
E-------------------|----0----||
B-------0---2---1---|----0----||
G-------1---2---2---|----1----||
D---2---0---2---2---|----2----||
A---2---2---0---0---|----2----||
E---0---0-----------|----0----||
 63.                 64.

About Us | Chord Progressions | F.A.Q. | Freebies | Guitar Chords | Guitar Lessons | Home Page | Links | Music News | Site Search | Songwriting | Standards | Store | Tablature | WebRings Copyright © 2006 MoneyChords.com