MoneyChords
Resources

Chords & Lyrics

Lyrics

MoneyChords
Store

Caroling, Caroling

Here are the fingerings that I use to play a chord-melody arrangement of Alfred Burt and Wihla Hutson's 1954 Christmas favorite Caroling, Caroling. I play it in the usual key of G. The song is played in a fast 6/8 time.


   GM7    Am7       Bm7  Bb7 Am7Bm7Am7 D9    GM7 Em7
E----------------|----------|-0--2--3--5-|-------0---|
B--3-3-3--3-3-3--|--3-3--3--|-1--3--1--5-|---3---0---|
G--4------0------|--2----1--|-0--2--0--5-|---4---0---|
D--4------2------|--0----3--|-2--4--2--4-|---4---0---|
A---------0------|--2----1--|-0--2--0--5-|-------2---|
E--3-------------|----------|------------|---3---0---|
 1.               2.         3.           4.

   Bm     Bm(M7)    Bm7  E9  Em Em7 A13A7  D7sus D7  
E--2-2-2--2-2-2--|--2-2--2--|-0--0--2--0-|-----------|
B--3------3------|--3----2--|-0--0--2--2-|---3---3---|
G--4------3------|--2----1--|-0--0--0--0-|---5---5---|
D--4-------------|--4----0--|-2--0--2--2-|---5---4---|
A--2------2------|--2----2--|-2--2--0--0-|---5---5---|
E----------------|-------0--|-0--0-------|-----------|
 5.               6.         7.           8.

 AmAm(M7)Am7A7b9 D7 A7 D7  BmBm(M7)Bm7B7b9 Em7 B7 Em7
E-8---7--5--3--|-2--0----|-10---8--7--5--|--3--2--0--|
B-5---5--5--2--|-1--2--3-|--7---7--7--4--|--3--0--0--|
G-5---5--5--3--|-2--0--5-|--7---7--7--5--|--4--2--0--|
D-7---6--5--2--|-0--2--4-|--9---8--7--4--|--2--1--0--|
A--------------|----0--5-|---------------|-----------|
E--------------|---------|---------------|-----------|
 9.             10.       11.             12.

   Am7  Bm7     F9  E9     Am7Am9 D7       C6/G G6
E--12---10--|---8---7---|---5--7--8-----|---5---3---||
B--12----7--|---8---7---|---5--5--7-7---|---5---5---||
G--12----7--|---8---7---|---5--5--7-5---|---5---4---||
D--10----7--|---7---6---|---5--5--7-7---|---5-------||
A-----------|---8---7---|---------5-5---|-------5---||
E-----------|-----------|---5--5--------|---3---3---||
 13.         14.         15.             16.

About Us | Chord Progressions | F.A.Q. | Freebies | Guitar Chords | Guitar Lessons | Home Page | Links | Music News | Site Search | Songwriting | Standards | Store | Tablature | WebRings Copyright © 2008 - 2009 MoneyChords.com