Auld Lang Syne

MoneyChords
Resources

Chords & Lyrics

Lesson (pdf)

Wikipedia

MoneyChords
Store

Auld Lang Syne

Here are the fingerings that I use to play a chord-melody arrangement of Robert Burns' New Year's Eve favorite Auld Lang Syne. I play it in the key of C not the usual key of G. The song is played moderately in 4/4 time.

A

  G7    C   Am7   Dm7 G7 G#o  Am7C/GGb7b5C9  FM7 F#o7 
E---||--------0-|------------|--------0--3-|--5--5--|
B---||--1-0-1---|-3---3--5-3-|--1--1--1--3-|--5--4--|
G-0-||--0---0---|-5-5-4--4---|--0--0--3--3-|--5--5--|
D-3-||--2---2---|-3---3--3---|--2--2--2--2-|--3--4--|
A-2-||--3---0---|-5---5------|--0--------3-|--------|
E-3-||----------|-----3--4---|-----3--2----|--------|
      1.         2.           3.            4.

   Em7  Am7     Dm7  G7 G#o    Am7 Dm7 G7   C  F#o7
E--3-0--0----|---------------|------------|-----5--||
B--0----1-1--|--3----3--5-3--|--1---------|--1--4--||
G--0----0----|--5-5--4--4----|--0-2-2--0--|--0--5--||
D--0----2----|--3----3--3----|--2---3--3--|--2--4--||
A--2----0----|--5----5-------|--0---5--2--|--3-----||
E--0---------|-------3--4----|---------3--|--------||
 5.           6.              7.           8. 

B
    
   CM7  Am7     Dm7  G7 G13 Am7C/G Gb7b5C9  FM7 F#o7 
E--3-0--0----|----------5--|-3--0---0---3-|--5---5--|
B--0----1-1--|--3----3--5--|-1--1---1---3-|--5---4--|
G--0----0----|--5-5--4--4--|-0--0---3---3-|--5---5--|
D--2----2----|--3----3--3--|-2--2---2---2-|--3---4--|
A--3----0----|--5----5-----|-0----------3-|---------|
E------------|-------3--3--|----3---2-----|---------|
 9.           10.           11.            12.

   Em7 Am7 C/G Dm7/A G#oG13G7 F#m7b5FM7 G7   C6 (G7)  
E--3-0--0-----|---------------|------------|-------||
B--0----1--1--|--3----3--5-3--|--1---------|--1----||
G--0----0--0--|--5-5--4--4-4--|--2-2-2--0--|--2----||
D--0----2--2--|--3----3--3-3--|--2---2--3--|--2----||
A--2----0-----|------------5--|---------2--|--3----||
E--0-------3--|--5----4--3-3--|--2---1--3--|-------||
 13.           14.             15.          16. 
Alternate Fingerings

(1) Bars 1 through 4: 

  G+    C   Am7   Dm/F G7 G13     C   CM7     FM7 
E---||--------0--|-------------|------0-3--|--5--5--|
B---||--1-0-1----|--3-1-3-5-3--|--1-1-0----|--5--5--|
G-0-||--0---0----|--2---4-4----|--0---0----|--5--5--|
D-1-||--2---2----|--0---3-3----|--2---2----|--3--3--|
A-2-||--3---0----|------5------|--3---3----|--------|
E-3-||-----------|--1---3-3----|-----------|--------|
      1.          2.            3.          4.

(2) Bars 1 through 4:  

        C   Am7    Dm7 G7 G#o    Am7  C7      F  F#o 
E---||--------0--|-------------|------0-3--|--5--5--|
B---||--1-0-1----|--3---3-5-3--|--1-1-1----|--5--4--|
G-0-||--0---0----|--5-5-4-4----|--0---3----|--5--5--|
D---||--2---2----|--3---3-3----|--2---2----|--3--4--|
A---||--3---0----|--5---5------|--0---3----|--------|
E---||-----------|------3-4----|-----------|--------|
      1.          2.            3.          4.

(3) Bars 1 through 4: 

        C   C/E   Dm/F G7 G#o   AmAb7Gm7 C7   F F#o
E---||--------0--|-------------|---------3-|--5--5--|
B---||--1-0-1----|--3-1-3-5-3--|-1----5--3-|--5--4--|
G-0-||--0---0----|--2---4-4----|-2-5--3--3-|--5--5--|
D---||--2---2----|--0---3-3----|-2-4--3--2-|--3--4--|
A---||--3---3----|------5------|-0----5--3-|--------|
E---||------0----|--1---3-4----|---4--3----|--------|
      1.          2.            3.          4.

(4) Bars 5 through 8:  

   C    Am7     Dm/F G7 E7/G#   Am7 F  G7    C  FM7
E--3-0--0----|----------0----|------------|-----5---|
B--0----1-1--|--3-1--3--3-3--|--1---------|--1--5---|
G--0----0----|--2----4--4----|--0-2-2--0--|--0--5---|
D--2----2----|--0----3--0----|--2---3--3--|--2--3---|
A--3----0----|-------5-------|--0---3--2--|--3------|
E------------|--1----3--4----|------1--3--|---------|
 5.           6.              7.           8. 

(5) Bars 5 through 8:  

   Em7  CM7    Dm7 Bm7b5 E7/G# Am7C7 F G7    C  F#o
E--3-0--0----|----------0----|------------|-----5---|
B--3----0-1--|--3----3--0-3--|--1---------|--1--4---|
G--4----0----|--5-5--2--4----|--0-2-2--0--|--0--5---|
D--2----2----|--3----3--0----|--2-2-3--3--|--2--4---|
A-------3----|--5----2-------|--0-3-3--2--|--3------|
E------------|----------4----|------1--3--|---------|
 5.           6.              7.            8. 
 
(6) Bars 5 through 8: 
 
 Em7Dm7  C Am7 DmDm9/CBm7b5E7    Am C7 F G7   C  F#o
E--3--0--0---|-------------0---|------------|----5--|
B--3--1--1-1-|--3--1---3---0-3-|--1---------|-1--4--|
G--4--2--0-0-|--5--2---2---1---|--2--2-2--0-|-0--5--|
D--2--0--2-2-|--3--3---3---0---|--2--2-3--3-|-2--4--|
A--------3-0-|--5--3---2---2---|--0--3-3--2-|-3-----|
E------------|-------------0---|-------1--3-|-------|
 5.           6.                7.           8. 

(7) Bars 9 through 12: 

   CM7  Am7     Dm/F G7 FM7   CM7           FM7 
E--3-0--0----|----------5--|--3-0--0-3--|---5---5---|
B--0----1-1--|--3-1--3--5--|--0----0----|---5---5---|
G--0----0----|--2----4--5--|--0----0----|---5---5---|
D--2----2----|--0----3--3--|--2----2----|---3---3---|
A--3----0----|-------5-----|--3----3----|-----------|
E------------|--1----3-----|------------|-----------|
 9.           10.           11.          12.

(8) Bars 9 through 12: 
 
   CM7  Am7     Dm7  G7 G13   CM7  Gb7     FM7 Bm7b5 
E--3-0--0----|----------5--|--3-0--0-3--|---5---5---|
B--0----1-1--|--3-1--3--5--|--0----2-2--|---5---3---|
G--0----0----|--5----4--4--|--0----3-3--|---5---4---|
D--2----2----|--3----3--3--|--2----4-2--|---3---3---|
A--3----0----|--5----5-----|--3---------|-----------|
E------------|-------3--3--|------------|-----------|
 9.           10.           11.          12.

(9) Bars: 13 through 16:

   CM7  Am7     Dm/F G7 E7/G#   Am7 F  G7      C  
E--3-0--0----|----------0----|------------|--------||
B--0----1-1--|--3-1--3--3-3--|--1---------|----1---||
G--0----0----|--2----4--4----|--0-2-2--0--|----0---||
D--2----2----|--0----3--0----|--2---3--3--|----2---||
A--3----0----|-------5-------|--0---3--2--|----3---||
E------------|--1----3--4----|------1--3--|--------||
 13.          14.             15.          16. 

About Us | Chord Progressions | F.A.Q. | Freebies | Guitar Chords | Guitar Lessons | Home Page | Links | Music News | Site Search | Songwriting | Standards | Store | Tablature | WebRings Copyright © 2006 - 2009 MoneyChords.com