MoneyChords
Resources

Chords & Lyrics

Sheet Music (pdf)

Wikipedia

MoneyChords
Store

Angels From The Realms Of Glory

Here are the fingerings that I use to play a chord-melody arrangement of Henry T. Smart and James Montgomery's 1816 Christmas Carol Angels From The Realms Of Glory. I play it in the key of G not the usual key of C. The song is played moderately in 4/4 time.

 GM7 G6Em7Bm7 Am9Am7D7susD7   CM7Am7Bm7Em7 Am11Ab7GM7
E-------3----|--7--5------- |--0--0-----3--|---------|
B-3-----0--3-|--5--5--8--3--|--0--1--3--0--|-3-------|
G-4--4--0--2-|--5--5--5--5--|--0--0--2--0--|-5--5--4-|
D-4--2--0--0-|--5--5--7--4--|--2--2--0--0--|-5--4--4-|
A-------2--2-|--------5--5--|--3--0--2--2--|---------|
E-3--3--0----|--5--5--------|-----------0--|-5--4--3-|
 1.           2.             3.             4.

 GM7F7b5 Em7Bb7  Am9Am7B7#5B7 Em7F#m7G6   A9sus A9 D
E--------3-----|--7--5--3--2-|-3--2----2-3-|-2--0----|
B--3--0--0--3--|--5--5--0--0-|-0--2--5-0---|-0--0--3-|
G--4--2--0--1--|--5--5--2--2-|-0--2--4-0---|-0--0--2-|
D--4--1--0--3--|--5--5--1--1-|-0--2----0---|-2--2--4-|
A--------2--1--|--------2--2-|-2-----5-----|-0--0--5-|
E--3--1--0-----|--5--5-------|-0--2--3-3---|---------|
 5.             6.            7.            8.

  D11   D7 /C  Bm7  Em7Bb7b5 Am7Bm7C6A9/C#D11 D7 G6
E-5--5-------|-7--5--3--0--|--8--7--5--3--|-3--2--3-||
B-5--5--7--3-|-7--3--0--3--|--5--7--5--0--|-1--1--5-||
G-5--5--5--5-|-7-----0--1--|--5--7--5--0--|-2--2--4-||
D-5--5--7--4-|-7--4--0--3--|--5--7--5--2--|-0--0----||
A-5--5--5--3-|----2--2--1--|--------3--4--|-------5-||
E------------|-7-----0-----|--5--7--------|-------3-||
 9.           10.           11.            12.

About Us | Chord Progressions | F.A.Q. | Freebies | Guitar Chords | Guitar Lessons | Home Page | Links | Music News | Site Search | Songwriting | Standards | Store | Tablature | WebRings Copyright © 2009 MoneyChords.com