Site hosted by Angelfire.com: Build your free website today!

Guitar   Tabz

::  Home  ::  Request Tabz   ::  
-| Back | A | B | C | D | E | F | G | H | I | J | K | L | M | N | O | P | Q | R | S | T | U | V | W | X | Y | Z | #  |-

:: Check Out The Homepage For News & Updates Daily ::
**Guitar Tabz** **Guitar Tabz** **Guitar Tabz**
Song:First Date Band:Blink-182
intro
e----------------------------------------------------------
b------5--------------------------------------------------
g--------55----7--55---7---55----7--5--4----------
d---------------------------------------------------------
a----------------------------------------------------------
e---------------------------------------------------------

e------------------------------------------------------
b----5------------------------------------------------
g--------55-----7--55-----755-----7--5--4--5--
d------------------------------------------------------
a------------------------------------------------------
e------------------------------------------------------

verse

e-----------------------------------------------------
b-----------------------------------------------------
g------55-----55-----55------55-----------------
d---5------5------5-------5------------------------
a-----------------------------------------------------
e-----------------------------------------------------

Chorous

e-----------------------------------------------------
b-----------------------------------------------------
g---5-5-2------------------------------------------
d---5-5-2--3-5-------------------------------------
a---3-2-0--3-5------------------------------------
e----------1-3--------------------------------------

Solo bit

d-5-2-----------------------------------------------
a-3-0-3-5-----------------------------------------
e-----1-3------------------------------------------
 pm

Solo bit part 2
g----5-/-9-/-5-/-10--/-7---------------------------------
d----5-/-9-/-5-/-10--/-7--------------------------------
a----3-/-7-/-3-/-8---/-5----------------------------------
e------------------------------------------------------------
 
~Guitar Tabz~