Site hosted by Angelfire.com: Build your free website today!

Guitar   Tabz

::  Home  ::  Request Tabz   ::  
-| Back | A | B | C | D | E | F | G | H | I | J | K | L | M | N | O | P | Q | R | S | T | U | V | W | X | Y | Z | #  |-

Link To Us By Copy & Pasting This On Your Site!
:: Check Out The Homepage For News & Updates Daily ::
**Guitar Tabz** **Guitar Tabz** **Guitar Tabz**
Beginner Tabz

Deep Purple- Smoke On The Water
E-------------------------------------------------------------------
B-------------------------------------------------------------------
G-------------------------------------------------------------------
A-------------------------------------------------------------------
D---------0---------------------------------------------------------
E---0--3-----0--3--7--5--0--3--5--3--0--Let Ring out----------------
Mary Had A Little Lamb or Merrily We Roll Along
E-------------------------------------------------------------------
B--0-------0-0-0------0-0-0--0-------0-0-0-----0--------------------
G----2-0-2-------2-2-2---------2-0-2-------2-2---2-0----------------
A-------------------------------------------------------------------
D-------------------------------------------------------------------
E-------------------------------------------------------------------
Jingle Bells Verse 1
E-------------------------------------------------------------------
B-0-0-0---0-0-0--0-3-----0----1-1-1-1-1-0-0-0-0-----0---3-----------
G--------------------0-2------------------------2-2---2-------------
A-------------------------------------------------------------------
D-------------------------------------------------------------------
E-------------------------------------------------------------------
Verse 2
E-------------------------------------------------------------------
B-0-0-0---0-0-0--0-3-----0----1-1-1-1-1-0-0-0-3-3-1-----------------
G--------------------0-2----------------------------2-0-------------
A-------------------------------------------------------------------
D-------------------------------------------------------------------
E-------------------------------------------------------------------
More Coming Soon!
 
~Guitar Tabz~