**Welcome To Guitar Tabz!**Welcome To Guitar Tabz**
Site hosted by Angelfire.com: Build your free website today!

::  Home  ::  Request Tabz   ::  
-| Back | A | B | C | D | E | F | G | H | I | J | K | L | M | N | O | P | Q | R | S | T | U | V | W | X | Y | Z | #  |-

Navigation

Link To Us By Copy & Pasting This On Your Site!


Top 100 Guitar Sites!
Vote Top 250 Guitar sites
Virtuallessons.net :: Guitar Sites
Vote for me in Top Guitar Sites



Report Broken Link
Intro(clean)

-3---3---1---1---0---0---1---1-----------------------
---1---1---1---1---1---1---1---1---------------------
-----------------------------------------------------
-----------------------------------------------------
-----------------------------------------------------
-----------------------------------------------------

Then This(distortion)

-----------------------------------------------------
-----------------------------------------------------
-----------------------------------------------------
---0h3--2---0h3---2---0h3---2----0----0--------------
-33---33--33----33--33----33--33---33----------------
-----------------------------------------------------


-----------------------------------------------------
-----------------------------------------------------
-9---10---9---5---7--------9--10--5------------------
-----------------------------------------------------
-7----8---7---3---5--------7---8--3------------------
-----------------------------------------------------


-----------------------------------------------------
-----------------------------------------------------
-----------------------------------------------------
-5--let ring-----------------------------------------
-3-----------333333333--00000000---------------------
---------------------------------11111111------------
P.m. ......... ........ ........
Bass Interlude for guitar

-----------------------------------------------------
-----------------------------------------------------
-----------------------------------------------------
-----------------------------------------------------
---7---------5--------3------------------------------
-5---5-----3---3----1--------------------------------

Chorus

-----------------------------------------------------
-----------------------------------------------------
-----------------------------------------------------
-------5-----------5------2-----5-----2--------------
-3--3--3--5--3--3--3--5---0--3--3--5--0--3-----------
-0--1-----3--0--1-----3------1-----3-----1-----------
 
~Guitar Tabz~