Site hosted by Angelfire.com: Build your free website today!

Guitar   Tabz

::  Home  ::  Request Tabz   ::  
-| Back | A | B | C | D | E | F | G | H | I | J | K | L | M | N | O | P | Q | R | S | T | U | V | W | X | Y | Z | #  |-

:: Check Out The Homepage For News & Updates Daily ::
**Guitar Tabz** **Guitar Tabz** **Guitar Tabz**
bandname: Blink 182

songname: Adam Song

Tabtype: guitar

tab: Intro repeat twice
e--------------------------------------
B--------------------------------------
G--------------------------------------
D----2----2----2----2----2---2---2---2-
A---0-3--0-3----3----3----3---3---3---3
E-------------3----3----1---1---0---3--
Verse
play 4 times 
e---------------------------------------------
B---------------------------------------------
G--55555555---------------22222222------------
D--55555555-----33333333--22222222--33333333--
A--33333333-----33333333--00000000--33333333--
E---------------11111111------------11111111--
I never thought I'd Die alone.............
e----------------------------------------------
B----------------------------------------------
G-----0----0-----2----2------------------------
D-------3----3-0--3-0--3---2-----2----0-----0--
A----3----3--------------0--3--0--3-----3-----3
E----------------------------------------------
Chourus repeat twice
e--------------------------------------------------
B--------------------------------------------------
G--55555555---77777777---22222222------------------
D--55555555---77777777---22222222---33333333-------
A--33333333---55555555---00000000---33333333-------
E-----------------------------------11111111-------
I never conquered rarely came 16 held such better days
e-------------------------------------------------------
B-------------------------------------------------------
G-------------------------------------------------------
D--55555555--77777777--22222222--10-10-10-10-10-10-10-10
A--55555555--77777777--22222222---8--8--8--8--8--8--8--8
E--33333333--55555555--00000000---8--8--8--8--8--8--8--8
 
~Guitar Tabz~