HOME / HOTTEST TABS

Wonderful Tonight (slow Version) Tab by Clapton EricClapton Eric Sheet 
Music Clapton Eric Posters Song Lyrics


Home : C : Clapton Eric Tabs : Wonderful Tonight (slow Version) TabCurrent 
Rating: (5 / 5) 




### Downloaded: 7/12/2003 23:41 - PST
#----------------------------------PLEASE NOTE----------------------------------#
# This file is the author's own work and represents their interpretation of the #
# song. You may only use this file for private study, scholarship, or research. #
#-------------------------------------------------------------------------------#

PROPS GO TO: Daryl Djojo & Maurice vT.

#================================================#
# Eric Clapton - Wonderful Tonight (Slow Version)#
# Tabbed by Daryl Djojo & Maurice vT. #
#================================================#
/T /I
/ |/ | .-~/
T\ Y I |/ / _
/T | \I | I Y.-~/
I l /I T\ | | l | T /
T\ | \ Y l /T | \I l \ ` l Y
__ | \l \l \I l __l l \ ` _. |
\ ~-l `\ `\ \ \\ ~\ \ `. .-~ |
\ ~-. "-. ` \ ^._ ^. "-. / \ |
.--~-._ ~- ` _ ~-_.-"-." ._ /._ ." ./
>--. ~-. ._ ~>-" "\\ 7 7 ]
^.___~"--._ ~-{ .-~ . `\ Y . / |
<__ ~"-. ~ /_/ \ \I Y : |
^-.__ ~(_/ \ >._: | l______
^--.,___.-~" /_/ ! `-.~"--l_ / ~"-.
(_/ . ~( /' "~"--,Y -=b-. _)
(_/ . \ : / l c"~o \
\ / `. . .^ \_.-~"~--. )
(_/ . ` / / ! )/
/ / _. '. .': / '
~(_/ . / _ ` .-<_
/_/ . ' .-~" `. / \ \ ,z=.
~( / ' : | K "-.~-.______//
"-,. l I/ \_ __{--->._(==.
//( \ < ~"~" //
/' /\ \ \ ,v=. ((
.^. / /\ " }__ //===- `
/ / ' ' "-.,__ {---(==-
.^ ' : T ~" ll
/ . . . : | :! \\
(_/ / | | j-" ~^
~-<_(_.^-~"
() " ()
( 'o' )")
*|=============================================================(,,)====|* 
*| Yeahhh baby, now this is the correct tab for this song, |*
*| We hope you guys and galls out there like it (know what I mean?!?). |* 
*| Any comments about the tabs don't hesitate to ask. |*
*| Mail it at mvtilburg@msn.com, houdoe en bedankt... |*
*|=====================================================================|*

-----------
Chords: 
G 320033
G7 320001
D 2x0232
C x32010
D xx0232
Am x02210
Em 022000
-----------


Guitar 1
e|-----|
B|-----|
G|-----|
D|-----|
A|-----|
E|-0-2-|

Guitar 1
G D C D
e|-------------------|-------------------|-------------------|-------------------|
B|-----3-------3-----|-----3-------------|-----3-------3-----|-----3-------------|
G|---0---0---0---0---|---2---2---2-------|---0---0---0---0---|---2---2---2-------|
D|---------0---------|-0-------0---------|---------2---------|-0-------0---------| 
A|-------------------|---------------0-2-|-3-----------------|-------------------|
E|-3-----------------|-------------------|-------------------|---------------0-2-|

Guitar 2
e|---------------------------------------------------------------------------------------
B|----------------------------------------------------------12/15------------------------
G|----14/16\14-12-14~----14/16-16-12---------14/16\14-12-14-------16\14-12-14-12~--------
D|-12-----------------12-------------14~--12---------------------------------------------
A|---------------------------------------------------------------------------------------
E|---------------------------------------------------------------------------------------

Guitar 1
G D C D
e|-------------------|-------------------|-------------------|-------------------|
B|-----3-------3-----|-----3-------------|-----3-------3-----|-----3-------------|
G|---0---0---0---0---|---2---2---2-------|---0---0---0---0---|---2---2---2-------|
D|---------0---------|-0-------0---------|---------2---------|-0-------0---------|
A|-------------------|---------------0-2-|-3-----------------|-------------------|
E|-3-----------------|-------------------|-------------------|---------------0-2-|

Guitar 2
e|---------------------------------------------------------------------------------------
B|---------------------------------------------------------------------------------------
G|----14/16\14-12-14~----14/16-16-12-----------12----12----------------------------------
D|-12-----------------12-------------14~-12-14----12----14--12-12-12---------------------
A|-------------------------------------------------------------------12/14\12-10-12-10~--
E|---------------------------------------------------------------------------------------

Guitar 1 ( Play this, two times!!! ) 
G D C D
e|-------------------|-------------------|-------------------|-------------------|
B|-----3-------3-----|-----3-------------|-----3-------3-----|-----3-------------|
G|---0---0---0---0---|---2---2---2-------|---0---0---0---0---|---2---2---2-------|
D|---------0---------|-0-------0---------|---------2---------|-0-------0---------|
A|-------------------|---------------0-2-|-3-----------------|-------------------|
E|-3-----------------|-------------------|-------------------|---------------0-2-|

Guitar 1
G D C D
e|-------------------|-------------------|-------------------|-------------------|
B|-----3-------3-----|-----3-------------|-----3-------3-----|-----3-------------|
G|---0---0---0---0---|---2---2---2-------|---0---0---0---0---|---2---2---2-------|
D|---------0---------|-0-------0---------|---------2---------|-0-------0---------|
A|-------------------|---------------0-2-|-3-----------------|-------------------|
E|-3-----------------|-------------------|-------------------|---------------0-2-|

Guitar 2 
e|---------------------------------------------------------------------------------------
B|-----------------13----13-15-15-12-----------------------------------------------------
G|----12-14-/16-16----16-------------14-12----12----12----14/16\14-12-14--16-14-12----12-
D|-12--------------------------------------14----14----14--------------------------14----
A|---------------------------------------------------------------------------------------
E|---------------------------------------------------------------------------------------

Guitar 1
G D C D
e|-------------------|-------------------|-------------------|-------------------|
B|-----3-------3-----|-----3-------------|-----3-------3-----|-----3-------------|
G|---0---0---0---0---|---2---2---2-------|---0---0---0---0---|---2---2---2-------|
D|---------0---------|-0-------0---------|---------2---------|-0-------0---------|
A|-------------------|---------------0-2-|-3-----------------|-------------------|
E|-3-----------------|-------------------|-------------------|---------------0-2-|

Guitar 2 
e|--------12-----------12----12----------------------------------------------------------
B|--15-15----15-15--15----15----12-------------------------------------------------------
G|---------------------------------14-12--12h14r12-------12--12\7------------------------
D|-------------------------------------------------14-12---------------------------------
A|---------------------------------------------------------------------------------------
E|---------------------------------------------------------------------------------------


Guitar 1 
G D C D
e|----------------------|------------------|--------------------------|-----------------|
B|-----3-------3--------|-----3------------|-----3-------3------------|-----3-----------|
G|---0---0---0---0------|---2---2---2------|---0---0---0---0----------|---2---2---2-----|
D|---------0------------|-0-------0--------|---------2----------------|-0-------0-------|
A|----------------------|--------------0-2-|-3------------------------|-----------------|
E|-3--------------------|------------------|--------------------------|-------------0-2-|

It's late in the evening__, She's wondering what clothes_ to wear_

Guitar 1
G D C D
e|----------------------|-------------------|--------------------------|----------------|
B|-----3-------3--------|-----3-------------|-----3-------3------------|-----3----------|
G|---0---0---0---0------|---2---2---2-------|---0---0---0---0----------|---2---2---2----|
D|---------0------------|-0-------0---------|---------2----------------|-0-------0------|
A|----------------------|---------------0-2-|-3------------------------|------------0-2-|
E|-3--------------------|-------------------|--------------------------|----------------|

She puts on her make-up__, and brushes her long_ blonde_ hair_

Guitar 1
C D G (F#) Em
e|-------------------|--------------------|--------------------------|------------------|
B|-----3-------3-----|------3-------------|------3----------3--------|------3-----------|
G|---0---0---0---0---|----2---2---2-------|----0---0------0---0------|----0---0---0-----|
D|---------2---------|--0-------0---------|--------------------------|----------2-------|
A|-3-----------------|--------------------|--------------------------|--------------0-2-|
E|-------------------|----------------0-2-|--3----------2------------|--0---------------|

And then_ she asks me__, "Do_ I_ look_ all_right?", And I say

Guitar 1 
C D 
e|-------------------|--------------------|
B|-----3-------3-----|------3-------------|
G|---0---0---0---0---|----2---2---2-------|
D|---------2---------|--0-------0---------|
A|-3-----------------|--------------------|
E|-------------------|----------------0-2-|

yes__, you look won_der_ful__ to_night__


Guitar 1 
G D C D
e|-------------------|-------------------|-------------------|-------------------|
B|-----3-------3-----|-----3-------------|-----3-------3-----|-----3-------------|
G|---0---0---0---0---|---2---2---2-------|---0---0---0---0---|---2---2---2-------|
D|---------0---------|-0-------0---------|---------2---------|-0-------0---------|
A|-------------------|---------------0-2-|-3-----------------|-------------------|
E|-3-----------------|-------------------|-------------------|---------------0-2-|

Guitar 2 
e|---------------------------------------------------------------------------------------
B|----------------------------------------------------12-12/15-12------------------------
G|-----12-14/16\14-12-14--12------------12-14/16\14-12-----------12/14-12----------------
D|---12-----------------14--14-12/9--------------------------------------14\12-9---------
A|-14------------------------------12-10----------------------------------------12-10----
E|---------------------------------------------------------------------------------------


Guitar 1 
G D C D
e|----------------------|---------------------|----------------------|------------------|
B|-----3-------3--------|-------3-------------|-----3-------3--------|-----3------------|
G|---0---0---0---0------|-----2---2---2-------|---0---0---0---0------|---2---2---2------|
D|---------0------------|---0-------0---------|---------2------------|-0-------0--------|
A|----------------------|-----------------0-2-|-3--------------------|------------------|
E|-3--------------------|---------------------|----------------------|--------------0-2-|

We go_ to a par__ty__ and everyone turns to see_

Guitar 1
G D C D
e|----------------------|-------------------|------------------------|------------------|
B|-----3-------3--------|-----3-------------|-----3-------3----------|-----3------------|
G|---0---0---0---0------|---2---2---2-------|---0---0---0---0--------|---2---2---2------|
D|---------0------------|-0-------0---------|---------2--------------|-0-------0--------|
A|----------------------|---------------0-2-|-3----------------------|--------------0-2-|
E|-3--------------------|-------------------|------------------------|------------------|

This beau_ti_ful_ la__dy__ that's walking around__ with me_

Guitar 1
C D G (F#) Em
e|-------------------|--------------------|--------------------------|------------------|
B|-----3-------3-----|------3-------------|------3------------3------|------3-----------|
G|---0---0---0---0---|----2---2---2-------|----0---0--------0---0----|----0---0---0-----|
D|---------2---------|--0-------0---------|--------------------------|----------2-------|
A|-3-----------------|--------------------|--------------------------|--------------0-2-|
E|-------------------|----------------0-2-|--3------------2----------|--0---------------|

And then_ she asked me__: "Do_ you_ feel_ allright_?" And I said:

Guitar 1 
C D G G7 
e|-------------------|--------------------|--------------------|--------1-----------|
B|-----3-------3-----|------3-------------|------3-------3-----|------0---0---------|
G|---0---0---0---0---|----2---2---2-------|----0---0---0---0---|----0-------0-------|
D|---------2---------|--0-------0---------|----------0---------|--------------------|
A|-3-----------------|--------------------|--------------------|---------------0-2--|
E|-------------------|----------------0-2-|--3-----------------|--3-----------------|

Yes__, I feel won_der_ful_ to_night__" I feel_

Guitar 1 
C D G (F#) Em 
e|-------------------|--------------------|-----------------------|---------------------|
B|-----3-------3-----|------3-------------|------3------------3---|------3--------------|
G|---0---0---0---0---|----2---2---2-------|----0---0--------0---0-|----0---0---0--------|
D|---------2---------|--0-------0---------|-----------------------|----------2----------|
A|-3-----------------|--------------------|-----------------------|----------------0-2--|
E|-------------------|----------------0-2-|--3------------2-------|--0------------------|

wonderful_, because I see_ the love_-light_ in your__ eyes__ and the

Guitar 1 
C D C Am D 
e|-------------------|--------------------|------------------------|--------------------|
B|-----3-------3-----|------3-------------|------3-------------1---|------3-------------|
G|---0---0---0---0---|----2---2---2-------|----0---0---------2---2-|----2---2---2-------|
D|---------2---------|--0-------0---------|------------------------|--0-------0---------|
A|-3-----------------|----------------0-2-|--3-----------0---------|--------------------|
E|-------------------|--------------------|------------------------|----------------0-2-|

wonder__ of_ it_ all__ is that you just_ don't re_a___ lise_ how__ much__ I 


Guitar 1
G D C D
e|-------------------|-------------------|-------------------|-------------------|
B|-----3-------3-----|-----3-------------|-----3-------3-----|-----3-------------|
G|---0---0---0---0---|---2---2---2-------|---0---0---0---0---|---2---2---2-------|
D|---------0---------|-0-------0---------|---------2---------|-0-------0---------|
A|-------------------|---------------0-2-|-3-----------------|-------------------|
E|-3-----------------|-------------------|-------------------|---------------0-2-|

love you__

Guitar 2 
e|---------------------------------------------------------------------------------------
B|---------------------------------------------------------------12/15-------------------
G|-----14/16\14-12-14~------14/16-16-12----------14/16\14-12-14--------16\14-12-14-12~---
D|--12-------------------12-------------14~---12-----------------------------------------
A|---------------------------------------------------------------------------------------
E|---------------------------------------------------------------------------------------

Guitar 1
G D C D
e|-------------------|-------------------|-------------------|-------------------|
B|-----3-------3-----|-----3-------------|-----3-------3-----|-----3-------------|
G|---0---0---0---0---|---2---2---2-------|---0---0---0---0---|---2---2---2-------|
D|---------0---------|-0-------0---------|---------2---------|-0-------0---------|
A|-------------------|---------------0-2-|-3-----------------|-------------------|
E|-3-----------------|-------------------|-------------------|---------------0-2-|

Guitar 2 
e|---------------------------------------------------------------------------------------
B|---------------------------------------------------------------------------------------
G|----14/16\14-12-14~----14/16-16-12-----------------------------------------------------
D|-12-----------------12-------------14~--12h14r12---------------------------------------
A|-------------------------------------------------14-12-10-12/14\12-10-12-10-12-10--10--
E|---------------------------------------------------------------------------------12----


Guitar 1
G D C D
e|---------------------|-------------------|---------------------|-------------------|
B|-----3-------3-------|-----3-------------|-----3-------3-------|-----3-------------|
G|---0---0---0---0-----|---2---2---2-------|---0---0---0---0-----|---2---2---2-------|
D|---------0-----------|-0-------0---------|---------2-----------|-0-------0---------|
A|---------------------|---------------0-2-|-3-------------------|-------------------|
E|-3-------------------|-------------------|---------------------|---------------0-2-|

It's time to go home__ now__, and I've got an aching head__

Guitar 1
G D C D
e|------------------------|-------------------|----------------------|------------------|
B|-----3-------3----------|-----3-------------|-----3-------3--------|-----3------------|
G|---0---0---0---0--------|---2---2---2-------|---0---0---0---0------|---2---2---2------|
D|---------0--------------|-0-------0---------|---------2------------|-0-------0--------|
A|------------------------|---------------0-2-|-3--------------------|------------------|
E|-3----------------------|-------------------|----------------------|--------------0-2-|

So_ I give her the car__ keys__ she helps_ me_ to bed__

Guitar 1 
C D G (F#) Em 
e|-------------------|--------------------|-----------------------|---------------------|
B|-----3-------3-----|------3-------------|------3----------3-----|------3--------------|
G|---0---0---0---0---|----2---2---2-------|----0---0------0---0---|----0---0---0--------|
D|---------2---------|--0-------0---------|-----------------------|----------2----------|
A|-3-----------------|--------------------|-----------------------|----------------0-2--|
E|-------------------|----------------0-2-|--3----------2---------|--0------------------|

And then I tell__ her__, as I turn out the light__ Oh_ my_

Guitar 1 
C D G (F#) Em 
e|-------------------|--------------------|--------3----------3---|---------------------|
B|-----3-------3-----|------3-------------|------3----------3-----|------3--------------|
G|---0---0---0---0---|----2---2---2-------|----0----------0-------|----0---0---0--------|
D|---------2---------|--0-------0---------|-----------------------|----------2----------|
A|-3-----------------|--------------------|-----------------------|----------------0-2--|
E|-------------------|----------------0-2-|--3----------2---------|--0------------------|

dar_ling__, you__ were won_der_ful__ to_night__ Oh_ my_

Guitar 1 
C D 
e|---------------------|--------------------|
B|-----3-------3-------|------3-------------|
G|---0---0---0---0-----|----2---2---2-------|
D|---------2-----------|--0-------0---------|
A|-3-------------------|--------------------|
E|---------------------|----------------0-2-| 

dar_ling__, you were won_der_ful__ to_night__


Guitar 1 
G D C D
e|-------------------|-------------------|-------------------|-------------------|
B|-----3-------3-----|-----3-------------|-----3-------3-----|-----3-------------|
G|---0---0---0---0---|---2---2---2-------|---0---0---0---0---|---2---2---2-------|
D|---------0---------|-0-------0---------|---------2---------|-0-------0---------|
A|-------------------|---------------0-2-|-3-----------------|-------------------|
E|-3-----------------|-------------------|-------------------|---------------0-2-|

Guitar 2
e|---------------------------------------------------------------------------------------
B|---------------------------------------------------------------12/15-------------------
G|-----14/16\14-12-14~------14/16-16-12----------14/16\14-12-14--------16\14-12-14-12~---
D|--12-------------------12-------------14~---12-----------------------------------------
A|---------------------------------------------------------------------------------------
E|---------------------------------------------------------------------------------------

Guitar 1
G D C D G
e|-------------------|-------------------|-------------------|-------------------|
B|-----3-------3-----|-----3-------------|-----3-------3-----|-----3-------------|
G|---0---0---0---0---|---2---2---2-------|---0---0---0---0---|---2---2---2-------|
D|---------0---------|-0-------0---------|---------2---------|-0-------0---------|
A|-------------------|---------------0-2-|-3-----------------|-------------------|
E|-3-----------------|-------------------|-------------------|---------------0-2-|

Guitar 2
e|---------------------------------------------------------------------------------------
B|-----------------------15----------------------------------12-13-17--15----------------
G|-----14/16\14-12-14~------16\14-12----------14/16\14-12-14-----------------------------
D|--12-------------------------------14~---12--------------------------------------------
A|---------------------------------------------------------------------------------------
E|---------------------------------------------------------------------------------------

Notations:
/ = Slide up
\ = Slide down
~ = Vibrato
h = Hammer
r = Release

Printable Version