HOME / HOTTEST TABS

Between Angels & Insects Tab by Papa RoachBuy Sheet Music Papa Roach 
Posters Papa Roach Lyrics


Home : P : Papa Roach Tabs : Between Angels & Insects TabCurrent Rating: 
(3.5 / 5) 




### Downloaded: 7/12/2003 23:45 - PST
#----------------------------------PLEASE NOTE----------------------------------#
# This file is the author's own work and represents their interpretation of the #
# song. You may only use this file for private study, scholarship, or research. #
#-------------------------------------------------------------------------------#

PROPS GO TO: Sean Boyes found at tabcrawler.com

SONG: Between Angels & Insects
BAND: Papa Roach


--------------------------------------------

TUNING: drop d (D-A-D-G-B-E)

() = palm mute

RIFF A:

|---------------------------------------------|
|---------------------------------------------|
|---------------------------------------------|
|---------------------------------------------|
|--8---7---10---8---7/8---8---7---10---8--7/8-|
|0---0---0----0---0-----8---8---8----8---8----|

|----------------------------------------------------|
|----------------------------------------------------|
|----------------------------------------------------|
|----------------------------------------------------|
|---8---7---10---8---7/8----8----7----10----8----8\7-| 
|-7---7---7----7---7-----10---10---10----10---10-----|

RIFF B:

|-----------------------------------------------------|
|-----------------------------------------------------|
|-----5-5-5-5-5-5-5-5-----------------5-5-5-5-5-5-5-5-|
|-0-0-5-5-5-5-5-5-5-5-0-0-0-0-0-0-0-0-5-5-5-5-5-5-5-5-|
|-0-0-3-3-3-3-3-3-3-3-0-0-0-0-0-0-0-0-3-3-3-3-3-3-3-3-|
|---------------------0-0-0-0-0-0-0-0-----------------|

|-------------------------------------------------------|
|-------------------------------------------------------|
|-------5-5-5-5-5-5-5-5-----------------5-5-5-5-5-5-5-5-|
|-7-7-7-5-5-5-5-5-5-5-5-7-7-7-7-7-7-7-7-5-5-5-5-5-5-5-5-|
|-7-7-7-3-3-3-3-3-3-3-3-7-7-7-7-7-7-7-7-3-3-3-3-3-3-3-3-|
|-7-7-7-----------------7-7-7-7-7-7-7-7-----------------|

RIFF C:

|---------------------------------------------------------|
|---------------------------------------------------------|
|---------5-5-5-5-5-5-5-5-----------------5-5-5-5-5-5-5-5-|
|-0-0-0-0-5-5-5-5-5-5-5-5-0-0-0-0-0-0-0-0-5-5-5-5-5-5-5-5-|
|-0-0-0-0-3-3-3-3-3-3-3-3-0-0-0-0-0-0-0-0-3-3-3-3-3-3-3-3-|
|-0-0-0-0-----------------0-0-0-0-0-0-0-0-----------------|

|---------------------------------------------------------|
|---------------------------------------------------------|
|---------------------------------------------------------|
|-7-7-7-7-8-8-8-8-8-8-8-8-3-3-3-3-3-3-3-3-1-1-1-1-1-1-1-1-|
|-7-7-7-7-8-8-8-8-8-8-8-8-3-3-3-3-3-3-3-3-1-1-1-1-1-1-1-1-|
|-7-7-7-7-8-8-8-8-8-8-8-8-3-3-3-3-3-3-3-3-1-1-1-1-1-1-1-1-|

RIFF D:

|-----------------------------------------------------------|
|-----------------------------------------------------------|
|-----------------------------------------------------------|
|0-0-0)---------------------(8-8-8-8-8)---------------------|
|0-0-0)-7/8-8/10-10-10-10\8-(8-8-8-8-8)-7/8-8/10-10-10-10\8-|
|0-0-0)---------------------(8-8-8-8-8)---------------------|

|-----------------------------------------------------------|
|-----------------------------------------------------------|
|-----------------------------------------------------------| 
|-7-7-7-7)------------------(10-10-10)----------------------|
|-7-7-7-7)-78-810-10-10-108-(10-10-10)----------------------|
|-7-7-7-7)------------------(10-10-10)-0-8/10-0-8/10-0-8/10-|

RIFF E:

|---------------------------------------------------------|
|---------------------------------------------------------|
|---------5-5-5-5-5-5-5-5-----------------5-5-5-5-5-5-5-5-|
|-0-0-0-0-5-5-5-5-5-5-5-5-0-0-0-0-0-0-0-0-5-5-5-5-5-5-5-5-|
|-0-0-0-0-3-3-3-3-3-3-3-3-0-0-0-0-0-0-0-0-3-3-3-3-3-3-3-3-|
|-0-0-0-0-----------------0-0-0-0-0-0-0-0-----------------|

|---------------------------------------------------------|
|---------------------------------------------------------|
|------5-5-5-5-5-5-5-5-----------------5-5-5-5-5-5-5-5-7\-|
|--7-7-5-5-5-5-5-5-5-5-7-7-7-7-7-7-7-7-5-5-5-5-5-5-5-5-7\-|
|--7-7-3-3-3-3-3-3-3-3-7-7-7-7-7-7-7-7-3-3-3-3-3-3-3-3-5\-|
|--7-7-----------------7-7-7-7-7-7-7-7--------------------|

RIFF F:

|-------------------------|
|-------------------------|
|-10-----10-----10-----10-|
|--0------8------7-----10-|
|--0------8------7-----10-|
|--0------8------7-----10-|

RIFF G:

|-----------------------------------------------|
|-----------------------------------------------|
|-----------------------------------------------|
|-----------------------------------------------|
|---8---7---10---8---7/8---8---7---10---8---7/8-|
|-0---0---0----0---0-----8---8---8----8---8-----|

|------------------------------------------------------|
|------------------------------------------------------|
|------------------------------------------------------|
|----------------------------------------------------0-|
|---8---7---10---8---7/8----8----7----10----8----8\7-0-|
|-7---7---7----7---7-----10---10---10----10---10-----0-|

RIFF H:

|----------------------------------------------------|
|----------------------------------------------------|
|--7-7-7-7-10-10-10-10-7-7-7-7-7-7-10-10-10-10-10-10-|
|--7-7-7-7-10-10-10-10-7-7-7-7-7-7-10-10-10-10-10-10-|
|--5-5-5-5--8--8--8--8-5-5-5-5-5-5--8--8--8--8--8--8-|
|----------------------------------------------------|

|----------------------------------------------------|
|----------------------------------------------------|
|-9-9-9-10-10-10-9-9-9-9-9-9-9-9-10-10-10-10-10-10-7-|
|-9-9-9-10-10-10-9-9-9-9-9-9-9-9-10-10-10-10-10-10-0-|
|-7-7-7--8--8--8-7-7-7-7-7-7-7-7--8--8--8--8--8--8-0-|
|--------------------------------------------------0-|




Printable Version